PrimaNota.ru - самый крупный в мире бесплатный архив песенных текстов, аккордов, табулатур и нот


John Barry - The Adventurer Theme - таба, видео

Регистрация Запомнить меня
Войти через:  Facebook Google Twitter Vk Yandex Mail.ru

John Barry - The Adventurer Theme - таба, видео

Печатать
Просмотров: 222
Уроки эстрадного вокала в Санкт-Петербурге
-----------------------------------------------------------------------------
                         The Adventurer - John Barry
-----------------------------------------------------------------------------

Tuning: EADGBe

Chords used:

    Em    Emmaj7    Am
e|--7---------------5------7------|
B|--8-------8-------5------7------|
G|--9-------9-------5------8------|
D|--9-------9-------7------7------|
A|--7-------6-------7------9------|
E|--0---------------5------7------|

BASSLINE (in general -- there are a few variations throughout -- play it by ear):

    Em       Emmaj7   Em     Am                B7     (start over)
G|-------------------------------------------------------------------------|
D|-------------------------------------------------------------------------|
A|--7-7-7--2s6-6-6-s9s7-7-7---------------------------6s7------------------|
E|---------------------------5-5-5---5-5-5---2s7-7-7-----------------------|

MELODY:

   Em        Emmaj7      Em       Am                B7                      x2
e|-------7-8----8-7------------------------7--------8-8-7-7----------------|
B|-8-7--------------10-7-7--------8-7-7------10-10-------------------------|
G|-----9------9------------9-9---------------------------------------------|
D|------------------------------9-------10---------------------------------|
A|-------------------------------------------------------------------------|
E|-------------------------------------------------------------------------|

BRIDGE:

   B7                       Am                      B7  
e|-7-8-8-7-7-----8--7---7-8-7-------------7--------------8-8-10-7----------|
B|----------------------------10-10-10------10---8---7--------------7------|
G|-------------9-----------------------------------9-----------------------|
D|--------------------------------------9----------------------------------|
A|-------------------------------------------------------------------------|
E|-------------------------------------------------------------------------|

FALSE ENDING:

   Em             Am     Em     Am    B7 (rock away on that B7!)
e|-7-11-11-12-12-----------------------------------------------------------|
B|-------------------------------------------------------------------------|
G|-----------------------8-9-9---------------------------------------------|
D|-------------------------------------------------------------------------|
A|-------------------------------------------------------------------------|
E|-------------------------------------------------------------------------|

ACTUAL ENDING

   Em                Emmaj7         Em          Emmaj7          Em
e|-7-11-11-12-12---7-8-10-8-7--7-11-11-12-12--7-8-10-8-7---7-11-12---------|
B|-------------------------------------------------------------------------|
G|-------------------------------------------------------------------------|
D|-------------------------------------------------------------------------|
A|-------------------------------------------------------------------------|
E|-------------------------------------------------------------------------|

For more tabs from secret agent films and TV:
http://www.mister8.com
Добавлено: 05.06.2012
Другие материалы по этой песне:
  • Аккорды и текст

Страница создана 05.06.2012
http://primanota.ru/john-barry/the-adventurer-theme-chords.htm
Привет, Гость.
Предлагаем пройти революционный курс по гитаре.
Подарок от PrimaNota.Ru, забирай!