PrimaNota.ru - самый крупный в мире бесплатный архив песенных текстов, аккордов, табулатур и нот


John Barry - On Her Majestys Secret Service - таба, видео

Регистрация Запомнить меня
Войти через:  Facebook Google Twitter Vk Yandex Mail.ru

John Barry - On Her Majestys Secret Service - таба, видео

Печатать
Просмотров: 100
--------------------------------------------------------|
--------------------------------------------------------|
--------------------------------------------------------|
--------------------------------------------------------|
--8-----------------------------------------------------|
-----------------11-------------9---------------8-------|


--------------------------------------------------------|
--------------------------------------------------------|
--------------------------------------------------------|
--------------------------------------------------------|
--8-----8-11--------11---10-11-10------8------8-12------|
--------------------------------------------------------| (x2)


--------------------------------------------------------|
--------------------------------------------------------|
--------------------------------------------------------|
--8-----8-11--------11---10-11-10-------------10-8------|
---------------------------------------11---------------|
--------------------------------------------------------|


--------------------------------------------------------|
--------------------------------------------------------|
-----------------------------8--------------------------|
--8---8-10-8-11-8-10-8-10-8---------8-------------------|
--------------------------------9-11--------------------|
--------------------------------------------------------|


--------------------------------------------------------|
--------------------------------------------------------|
--------------------------------------------------------|
------------------------------------------10------------|
--8-----8-11---------11---10-11-10---8-10---------------|
--------------------------------------------------------|


--------------------------------------------------------|
--------------------------------------------------------|
--------------------------------------------------------|
-3------------------------------------------------------|
---6-4-3---------3--------------------------------------|
----------6---4--------6----4----2--1-------------------|


--------------------------------------------------------|
--------------------------------------------------------|
---------------------10--9------------------------------|
------------10----10------------------------------------|
------10-11---------------------------------------------|
-(1)----------------------------------------------------|

*This first note is the bass, but sounds a bit weird without it

--------------------------------------------------------|
--------------------------------------------------------|
--10---10-13---------13--12-13-12------10---10-14-------|
--------------------------------------------------------|
--------------------------------------------------------|
--------------------------------------------------------| (x2)


--------------------------------------------------------|
--11---11-14---------14-13-14-13----------13-11---------|
---------------------------------------13---------------|
--------------------------------------------------------|
--------------------------------------------------------|
--------------------------------------------------------|


---------------------------------11---------------------|
--11--11-13-11-14-11-13-11-13-11-------------11---------|
---------------------------------------11-13------------|
--------------------------------------------------------|
--------------------------------------------------------|
--------------------------------------------------------|


--------------------------------------------------------|
--------------------------------------------------------|
--------------------------------------------------------|
--------------------------------------------------------|
--8-----------------------------------------------------|
-----------------11-------------9---------------8-------|
Добавлено: 24.01.2014
Другие материалы по этой песне:
  • Аккорды и текст

Страница создана 24.01.2014
http://primanota.ru/john-barry/on-her-majestys-secret-service-chords.htm
Привет, Гость.
Предлагаем пройти революционный курс по гитаре.
Подарок от PrimaNota.Ru, забирай!