PrimaNota.ru - самый крупный в мире бесплатный архив песенных текстов, аккордов, табулатур и нот


John Barry - The Danny Scipio Theme - таба, видео

Регистрация Запомнить меня
Войти через:  Facebook Google Twitter Vk Yandex Mail.ru

John Barry - The Danny Scipio Theme - таба, видео

Печатать
Просмотров: 89
JOHN BARRY   The Danny Scipio Theme

A great B-side to the tune "Vendetta" from the TV series of the same name. 

You Tube : https://www.youtube.com/watch?v=6uPId4uj_8I


Intro : percussion


Melody on dulcimer


   Fm                                C
e|----------------|----------------|----------------|----------------|
B|----------------|----------------|----------------|----------------|
G|----------------|----------------|----------------|----------------|
D|----------10----|--------11-10---|---------10-----|--------11-10---|
A|8-------8-------|--------------8-|7------7--------|--------------7-|
E|----------------|----------------|----------------|----------------|


   Ab                                Bb 
e|----------------|----------------|----------------|----------------|
B|----------------|----------------|----------------|----------------|
G|----------------|----------------|----------------|----------------|
D|----------10----|--------11-10-7-|8---------------|----------------|
A|6-------6-------|----------------|----------------|----------------|
E|----------------|----------------|----------------|----------------|


   Bb                                Bbm
e|----------------|----------------|----------------|----------------|
B|----------------|----------------|----------------|----------------|
G|----------------|----------------|----------------|----------------|
D|-----------8----|---------10-8---|----------8-----|--------10-8----|
A|----------------|--------------8-|----------------|-------------8--|
E|10------10------|----------------|9-------9-------|----------------|


   C                                 Ab
e|----------------|----------------|----------------|----------------|
B|----------------|----------------|----------------|----------------|
G|----------------|----------------|----------------|----------------|
D|-----------8----|---------8-6-5--|6---------------|----------------|
A|----------------|----------------|----------------|----------------|
E|12------12------|----------------|----------------|----------------|

This theme played the whole song


Добавлено: 17.07.2015
Другие материалы по этой песне:
  • Аккорды и текст

Страница создана 17.07.2015
http://primanota.ru/john-barry/danny-scipio-theme-chords.htm
Привет, Гость.
Предлагаем пройти революционный курс по гитаре.
Подарок от PrimaNota.Ru, забирай!