PrimaNota.ru - самый крупный в мире бесплатный архив песенных текстов, аккордов, табулатур и нот


The John Barry Seven - Hit And Miss - таба, видео

Регистрация Запомнить меня
Войти через:  Facebook Google Twitter Vk Yandex Mail.ru

The John Barry Seven - Hit And Miss - таба, видео

Печатать
Просмотров: 55
THE JOHN BARRY SEVEN      Hit and miss

Performed by The John Barry Seven

https://en.wikipedia.org/wiki/The_John_Barry_Seven


Youtube : https://www.youtube.com/watch?v=740NBXSOCJY

This is the basic theme, used the whole song.

Solo in the middle of the song ( not tabbed )
Standard tuning

Chords used

E= 022300
A= 577655
B= 799877



INTRO ( strings )
  E 
e|12--------------|----------------|----------------|----------------|
B|9---------------|----------------|----------------|----------------|
G|----------------|----------------|----------------|----------------|
D|----------------|----------------|----------------|----------------|
A|----------------|----------------|----------------|----------------|
E|----------------|----------------|----------------|----------------|


Guitarline
                    E                                 E
e|----------------|----------------|----------------|----------------|
B|----------------|----------------|----------------|----------------|
G|----------------|----------------|----------------|----------------|
D|----------------|2---------------|----------------|2---------------|
A|----------2-4-2-|------------4-2-|4-2-------2-4-2-|------------4-2-|
E|----------------|----------------|----2b--0-------|----------------|


                    A                                 E
e|----------------|----------------|----------------|----------------|
B|----------------|----------------|----------------|----------------|
G|----------------|----------------|----------------|----------------|
D|----------------|----------------|----------------|----------------|
A|4-2-------------|----------------|----------------|----------------|
E|----2b--0----2b-|0---------------|------2b---2b---|0---------------|

                    
                    B                A                B
e|----------------|----------------|----------------|----------------|
B|----------------|----------------|----------------|----------------|
G|----------------|----------------|----------------|----------------|
D|----------------|----------------|----------------|----------------|
A|------------0-1-|2---2---------1-|0---0---------1-|2---2---------1-|
E|----------4-----|----------------|----------------|----------------|


   A                E
e|----------------|----------------|----------------|
B|----------------|----------------|----------------|
G|----------------|----------------|----------------|
D|----------------|----------------|----------2-4-2-|
A|0---------------|----------------|----------------|
E|----------------|2b--0-----------|----------------|       Repeat




  Bassline ( falls in : A-chord above 6th measure)

   A                                 E
|----------------|-----------------|----------------|----------------|
|--------2---4-2-|--------2---4-2--|----------------|----------------|
|----4-----------|----4------------|--------2---4-2-|--------2---4-2-|
|5---------------|5----------------|0---4-----------|0---4-----------|

  B                A                 B                A 
|----------------|-----------------|----------------|----------------|
|--------4---6-4-|--------2---4-2--|--------4---6-4-|----------------|
|----6-----------|----4------------|----6-----------|----------------|
|7---------------|5----------------|7---------------|5---------------|

  E                E                 E                E
|----------------|-----------------|----------------|----------------|
|----------------|-----------------|----------------|----------------|
|--------2---4-2-|--------2---4-2--|----------------|----------------|
|0---4-----------|0---4------------|----------------|----------------| repeat



 
Добавлено: 14.06.2016
Другие материалы по этой песне:
  • Аккорды и текст

Страница создана 14.06.2016
http://primanota.ru/john-barry-seven/hit-and-miss-chords.htm
Привет, Гость.
Предлагаем пройти революционный курс по гитаре.
Подарок от PrimaNota.Ru, забирай!