PrimaNota.ru - самый крупный в мире бесплатный архив песенных текстов, аккордов, табулатур и нот


John Barnett - No One Like You - таба, видео

Регистрация Запомнить меня
Войти через:  Facebook Google Twitter Vk Yandex Mail.ru

John Barnett - No One Like You - таба, видео

Печатать
Просмотров: 80
Авторы: John Barnett

		   NO ONE LIKE YOU
			by : John Barnett
  from the 'Touching the Father's Heart' series #18 (Light the Fire Again)
	    Tabbed by : Tim Berg  tberg@dax.cc.uakron.edu>

Tablature explanation :
   b - Bend
   h - Hammer-on
   p - Pull-off
   \ - Slide down
   / - Slide up

Chords :
	D               xx0232
	G               320033
	A               x02220
	Asus4           x02230
	Bm              024432


	  D                                    G
v1:          There's no one like You in all the earth
	   D                                 G
	      There's no one like You in the heavens
	D                                      Bm
	  There's no one like You who knows my weakness
				   G
			 Knows my frailty
				A4  A
			 And my desire...


Ch:                Is to know You, all my days

		   Is to know You, as my savior

		  Is to know You, in Your beauty

		   In Your power, in Your glory

		 There's no one like you   (Rpt)


v2:          There's no one like You in all the earth

	      There's no one like you in the heavens

	   There's no one like You who sings so sweetly

	      Who shines so brightly and is so holy


v3:             And I will praise You all my days

		  I will praise You as my Savior

		 I will praise You in Your beauty

		   In Your power and Your glory

		 There's no one like You   (Rpt)


v4:             And I will praise You all my days

		  I will praise You as my Savior

		 I will praise You in Your beauty

		   In your power and your glory


Lead :
e------------------------------7-----------------------------|
B-7--7-8-7-5----8b10-8b10-8b10---8b10-8-7-5-7---7-8-7-5-7p5--|
G------------7----------------------------------------------7|
D------------------------------------------------------------|
A------------------------------------------------------------|
E------------------------------------------------------------|

e------7------|-14-14-15-14-------17b19-17b19-15-17b19-17b19-14-17-17b19-|
B-8b10---8b10-|-------------17-15--------------------------------------|
G-------------|--------------------------------------------------------|
D-------------|--------------------------------------------------------|
A-------------|--------------------------------------------------------|
E-------------|--------------------------------------------------------|

e-17b19-15-17b19-17b19--17-15--17-15-14--15-14-----14------------------|
B----------------------------------------------17-----17-15--14--------|
G---------------------------------------------------------------16-14--|
D----------------------------------------------------------------------|
A----------------------------------------------------------------------|
E----------------------------------------------------------------------|

e-------------------------|
B-------------------------|
G--16b18-16b18-16b18--14--|
D-------------------------|
A-------------------------|
E-------------------------|

- On lead, always hold consecutive bends.


     
Добавлено: 08.12.2013
Другие материалы по этой песне:
  • Аккорды и текст

Страница создана 08.12.2013
http://primanota.ru/john-barnett/no-one-like-you-chords.htm
Привет, Гость.
Предлагаем пройти революционный курс по гитаре.
Подарок от PrimaNota.Ru, забирай!