PrimaNota.ru - самый крупный в мире бесплатный архив песенных текстов, аккордов, табулатур и нот


John Allred - Your Hand In Mine - таба, видео

Регистрация Запомнить меня
Войти через:  Facebook Google Twitter Vk Yandex Mail.ru

John Allred - Your Hand In Mine - таба, видео

Печатать
Просмотров: 79
Уроки эстрадного вокала в Санкт-Петербурге
Your Hand In Mine 
John Allred

Tabbed by: tb.rubbersoul

Standard Tuning -> (eBGDAE)

Make Sure you listen to the song to get the timing right.

Approximately 120 bpm

John Plays It On an Acoustic guitar while finger-picking, usually.
There are three major Riffs repeated throughout the entire song. (With the exception of the chorus)

May not be 100%, feel free to email me at BryTop05@Gmail.com

INTRO: RIFF 1 - RIFF 2 - RIFF 1 - RIFF 3

        e|-----------------------------------|
        B|-----------------------------------|
        G|-----0---0---0---0---0---0---0---0-|
        D|-----------------------0-------0---|
        A|---------------2---3-------2-------|
        E|---0---2---3-----------------------|
         {<<<<<<<<<<<< RIFF 1 >>>>>>>>>>>>>>>}  

        e|---------------------------------|
        B|---------------------------------|
        G|---0---0---0---0---0---0---0---0-|
        D|---------------------0-------0---|
        A|-------------2---0---------------|
        E|-0---2---3---------------3-------|
          {<<<<<<<<<<< RIFF 2 >>>>>>>>>>>}

        e|----------------------------------|
        B|----------------------------------|
        G|----0---0---0---0---0---0---0---0-|
        D|----------------------0-------0---|
        A|--------------2---3-------2-------|
        E|--0---2---3-----------------------|
         {<<<<<<<<<<<< RIFF 1 >>>>>>>>>>>>>>>}  


        e|---------------------------------|
        B|---------------------------------|
        G|---2---0---0---0---0---0---0---0-|
        D|-0---0-------0-------0-------0---|
        A|---------2-------3-------2-------|
        E|---------------------------------|
         {<<<<<<<<<<< RIFF 3 >>>>>>>>>>>>>}

Verse 1:
        RIFF 1
        e|--------------------------------------------------|
        B|--------------------------------------------------|
        G|------0-----0-----0-----0-----0-----0-----0-----0-|
        D|---------------------------------0-----------0----|
        A|---------------------2-----3-----------2----------|
        E|---0-----2-----3----------------------------------|
                     "She feels the wind       blow....."
        
        RIFF 2
        e|--------------------------------------------------|
        B|--------------------------------------------------|
        G|------0-----0-----0-----0-----0-----0-----0-----0-|
        D|---------------------------------0-----------0----|
        A|---------------------2-----0----------------------|
        E|---0-----2-----3-----------------------3----------|
                     "Where  ever   she        goes....."

        RIFF 1 (again)
        e|--------------------------------------------------|
        B|--------------------------------------------------|
        G|------0-----0-----0-----0-----0-----0-----0-----0-|
        D|---------------------------------0-----------0----|
        A|---------------------2-----3-----------2----------|
        E|---0-----2-----3----------------------------------|
                     "And its been   so         cold...."

        RIFF 3
        e|--------------------------------------------------|
        B|--------------------------------------------------|
        G|------2-----0-----0-----0-----0-----0-----0-----0-|
        D|---0-----0-----------0-----------0-----------0----|
        A|---------------2-----------3-----------2----------|
        E|--------------------------------------------------|
           "All        these       days ......"


Verse 2:
        RIFF 1
        e|--------------------------------------------------|
        B|--------------------------------------------------|
        G|------0-----0-----0-----0-----0-----0-----0-----0-|
        D|---------------------------------0-----------0----|
        A|---------------------2-----3-----------2----------|
        E|---0-----2-----3----------------------------------|
                     "She took my   hand       when....."

        RIFF 2
        e|--------------------------------------------------|
        B|--------------------------------------------------|
        G|------0-----0-----0-----0-----0-----0-----0-----0-|
        D|---------------------------------0-----------0----|
        A|---------------------2-----0----------------------|
        E|---0-----2-----3-----------------------3----------|
                     "She was       aban    -  doned...."


        RIFF 1 (again)
        e|--------------------------------------------------|
        B|--------------------------------------------------|
        G|------0-----0-----0-----0-----0-----0-----0-----0-|
        D|---------------------------------0-----------0----|
        A|---------------------2-----3-----------2----------|
        E|---0-----2-----3----------------------------------|
                     "Like I would  under -    stand...."

        RIFF 3
        e|--------------------------------------------------|
        B|--------------------------------------------------|
        G|------2-----0-----0-----0-----0-----0-----0-----0-|
        D|---0-----0-----------0-----------0-----------0----|
        A|---------------2-----------3-----------2----------|
        E|--------------------------------------------------|
           "When       she'd        say ......"


Chorus:
        CHORUS RIFF 1 (slide up to 5th fret)
        e|--------------------------------------------------------------------------|
        B|--------------------------------------------------------------------------|
        G|------0-----0-----0-----0-----0-----0-----0-----0-----0-----0-----0-----0-|
        D|---------4-----------4-----------4-----------4-----------4-----------4----|
        A|---5-----------5-----------5-----------5-----------5-----------5----------|
        E|--------------------------------------------------------------------------|
            "Don't                               give  up   on me ..."

        CHOURUS RIFF 2 (quickly slide back down to the 3rd fret)
        e|--------------------------------------------------------------------------|
        B|--------------------------------------------------------------------------|
        G|------0-----0-----0-----0-----0-----0-----0-----0-----0-----0-----0-----0-|
        D|---------2-----------2-----------2-----------2-----------2-----------2----|
        A|---3-----------3-----------3-----------3-----------3-----------3----------|
        E|--------------------------------------------------------------------------|
           "Now,                                           She said ..."

        CHORUS RIFF 1 (slide up to 5th fret)
        e|--------------------------------------------------------------------------|
        B|--------------------------------------------------------------------------|
        G|------0-----0-----0-----0-----0-----0-----0-----0-----0-----0-----0-----0-|
        D|---------4-----------4-----------4-----------4-----------4-----------4----|
        A|---5-----------5-----------5-----------5-----------5-----------5----------|
        E|--------------------------------------------------------------------------|
            "Don't                               give  up   on me ..."

        CHORUS RIFF 3 (quickly slide down to the 3rd fret)
        e|--------------------------------------------------------------------------|
        B|--------------------------------------------------------------------------|
        G|------0-----0-----0-----0-----0-----0-----0-----0-----0-----0-----0-----0-|
        D|---------2-----------2-----------2-----------2-----------0-----------0----|
        A|---3-----------3-----------3-----------3----------------------------------|
        E|---------------------------------------------------3-----------3----------|
           "Now,                              Oh,           no...."


Intro repeated:

        e|-----------------------------------|
        B|-----------------------------------|
        G|-----0---0---0---0---0---0---0---0-|
        D|-----------------------0-------0---|
        A|---------------2---3-------2-------|
        E|---0---2---3-----------------------|
         {<<<<<<<<<<<< RIFF 1 >>>>>>>>>>>>>>>}  

        e|---------------------------------|
        B|---------------------------------|
        G|---0---0---0---0---0---0---0---0-|
        D|---------------------0-------0---|
        A|-------------2---0---------------|
        E|-0---2---3---------------3-------|
          {<<<<<<<<<<< RIFF 2 >>>>>>>>>>>}

        e|----------------------------------|
        B|----------------------------------|
        G|----0---0---0---0---0---0---0---0-|
        D|----------------------0-------0---|
        A|--------------2---3-------2-------|
        E|--0---2---3-----------------------|
         {<<<<<<<<<<<< RIFF 1 >>>>>>>>>>>>>>>}  


        e|---------------------------------|
        B|---------------------------------|
        G|---2---0---0---0---0---0---0---0-|
        D|-0---0-------0-------0-------0---|
        A|---------2-------3-------2-------|
        E|---------------------------------|
         {<<<<<<<<<<< RIFF 3 >>>>>>>>>>>>>}


Verse 3:
        RIFF 1
        e|--------------------------------------------------|
        B|--------------------------------------------------|
        G|------0-----0-----0-----0-----0-----0-----0-----0-|
        D|---------------------------------0-----------0----|
        A|---------------------2-----3-----------2----------|
        E|---0-----2-----3----------------------------------|
                    "She searched for sun    -  light....."
        
        RIFF 2
        e|--------------------------------------------------|
        B|--------------------------------------------------|
        G|------0-----0-----0-----0-----0-----0-----0-----0-|
        D|---------------------------------0-----------0----|
        A|---------------------2-----0----------------------|
        E|---0-----2-----3-----------------------3----------|
                     "It seems her  whole      life...."

        RIFF 1 (again)
        e|--------------------------------------------------|
        B|--------------------------------------------------|
        G|------0-----0-----0-----0-----0-----0-----0-----0-|
        D|---------------------------------0-----------0----|
        A|---------------------2-----3-----------2----------|
        E|---0-----2-----3----------------------------------|
           "She's been caught on the dark      side..."

        RIFF 3
        e|--------------------------------------------------|
        B|--------------------------------------------------|
        G|------2-----0-----0-----0-----0-----0-----0-----0-|
        D|---0-----0-----------0-----------0-----------0----|
        A|---------------2-----------3-----------2----------|
        E|--------------------------------------------------|
           "All        these       years ......"

Verse 4:
        RIFF 1
        e|--------------------------------------------------|
        B|--------------------------------------------------|
        G|------0-----0-----0-----0-----0-----0-----0-----0-|
        D|---------------------------------0-----------0----|
        A|---------------------2-----3-----------2----------|
        E|---0-----2-----3----------------------------------|
                    "She looked in  my          eyes....."
        
        RIFF 2
        e|--------------------------------------------------|
        B|--------------------------------------------------|
        G|------0-----0-----0-----0-----0-----0-----0-----0-|
        D|---------------------------------0-----------0----|
        A|---------------------2-----0----------------------|
        E|---0-----2-----3-----------------------3----------|
                     "And saw the   sun    -    rise...."

        RIFF 1 (again)
        e|--------------------------------------------------|
        B|--------------------------------------------------|
        G|------0-----0-----0-----0-----0-----0-----0-----0-|
        D|---------------------------------0-----------0----|
        A|---------------------2-----3-----------2----------|
        E|---0-----2-----3----------------------------------|
                    "But she's been  so         blind..."

        RIFF 3
        e|--------------------------------------------------|
        B|--------------------------------------------------|
        G|------2-----0-----0-----0-----0-----0-----0-----0-|
        D|---0-----0-----------0-----------0-----------0----|
        A|---------------2-----------3-----------2----------|
        E|--------------------------------------------------|
           "She  can't  stay        here......"

Chorus:
        CHORUS RIFF 1 (slide up to 5th fret)
        e|--------------------------------------------------------------------------|
        B|--------------------------------------------------------------------------|
        G|------0-----0-----0-----0-----0-----0-----0-----0-----0-----0-----0-----0-|
        D|---------4-----------4-----------4-----------4-----------4-----------4----|
        A|---5-----------5-----------5-----------5-----------5-----------5----------|
        E|--------------------------------------------------------------------------|
            "Don't                               give  up   on me ..."

        CHOURUS RIFF 2 (quickly slide back down to the 3rd fret)
        e|--------------------------------------------------------------------------|
        B|--------------------------------------------------------------------------|
        G|------0-----0-----0-----0-----0-----0-----0-----0-----0-----0-----0-----0-|
        D|---------2-----------2-----------2-----------2-----------2-----------2----|
        A|---3-----------3-----------3-----------3-----------3-----------3----------|
        E|--------------------------------------------------------------------------|
           "Now,                                           She said ..."

        CHORUS RIFF 1 (slide up to 5th fret)
        e|--------------------------------------------------------------------------|
        B|--------------------------------------------------------------------------|
        G|------0-----0-----0-----0-----0-----0-----0-----0-----0-----0-----0-----0-|
        D|---------4-----------4-----------4-----------4-----------4-----------4----|
        A|---5-----------5-----------5-----------5-----------5-----------5----------|
        E|--------------------------------------------------------------------------|
            "Don't                               give  up   on me ..."

        CHOURUS RIFF 2 (quickly slide back down to the 3rd fret)
        e|--------------------------------------------------------------------------|
        B|--------------------------------------------------------------------------|
        G|------0-----0-----0-----0-----0-----0-----0-----0-----0-----0-----0-----0-|
        D|---------2-----------2-----------2-----------2-----------2-----------2----|
        A|---3-----------3-----------3-----------3-----------3-----------3----------|
        E|--------------------------------------------------------------------------|
           "Now,                                           'cause..."

        CHORUS RIFF 1 (slide up to 5th fret)
        e|--------------------------------------------------------------------------|
        B|--------------------------------------------------------------------------|
        G|------0-----0-----0-----0-----0-----0-----0-----0-----0-----0-----0-----0-|
        D|---------4-----------4-----------4-----------4-----------4-----------4----|
        A|---5-----------5-----------5-----------5-----------5-----------5----------|
        E|--------------------------------------------------------------------------|
            "We'll                                     Make it out some ..."

        CHORUS RIFF 3 (quickly slide down to the 3rd fret)
        e|--------------------------------------------------------------------------|
        B|--------------------------------------------------------------------------|
        G|------0-----0-----0-----0-----0-----0-----0-----0-----0-----0-----0-----0-|
        D|---------2-----------2-----------2-----------2-----------0-----------0----|
        A|---3-----------3-----------3-----------3----------------------------------|
        E|---------------------------------------------------3-----------3----------|
           "How,                                with     your           hand...."
        
        CHORUS RIFF 4
        e|--------------------------------------------------------------------------|
        B|--------------------------------------------------------------------------|
        G|------0-----0-----0-----0-----0-----0-----0-----0-----0-----0-----0-----0-|
        D|---------0-----------0-----------0-----------0-----------0-----------0----|
        A|--------------------------------------------------------------------------|
        E|---3-----------3-----------3-----------3-----------3-----------3----------|
                       "In                    Mine,         with your  hand...."

        CHORUS RIFF 4 (repeated)
        e|--------------------------------------------------------------------------|
        B|--------------------------------------------------------------------------|
        G|------0-----0-----0-----0-----0-----0-----0-----0-----0-----0-----0-----0-|
        D|---------0-----------0-----------0-----------0-----------0-----------0----|
        A|--------------------------------------------------------------------------|
        E|---3-----------3-----------3-----------3-----------3-----------3----------|
                       "In                    Mine,         with your  hand...."

Intro: (optional, John doesn't play the intro here, but I like it)

        e|-----------------------------------|
        B|-----------------------------------|
        G|-----0---0---0---0---0---0---0---0-|
        D|-----------------------0-------0---|
        A|---------------2---3-------2-------|
        E|---0---2---3-----------------------|
         {<<<<<<<<<<<< RIFF 1 >>>>>>>>>>>>>>>}  

        e|---------------------------------|
        B|---------------------------------|
        G|---0---0---0---0---0---0---0---0-|
        D|---------------------0-------0---|
        A|-------------2---0---------------|
        E|-0---2---3---------------3-------|
          {<<<<<<<<<<< RIFF 2 >>>>>>>>>>>}

        e|----------------------------------|
        B|----------------------------------|
        G|----0---0---0---0---0---0---0---0-|
        D|----------------------0-------0---|
        A|--------------2---3-------2-------|
        E|--0---2---3-----------------------|
         {<<<<<<<<<<<< RIFF 1 >>>>>>>>>>>>>>>}  


        e|---------------------------------|
        B|---------------------------------|
        G|---2---0---0---0---0---0---0---0-|
        D|-0---0-------0-------0-------0---|
        A|---------2-------3-------2-------|
        E|---------------------------------|
          {<<<<<<<<<<< RIFF 3 >>>>>>>>>>>>>}

Verse 1: (repeated, quietly)
        RIFF 1
        e|--------------------------------------------------|
        B|--------------------------------------------------|
        G|------0-----0-----0-----0-----0-----0-----0-----0-|
        D|---------------------------------0-----------0----|
        A|---------------------2-----3-----------2----------|
        E|---0-----2-----3----------------------------------|
                     "She feels the wind       blow....."
        
        RIFF 2
        e|--------------------------------------------------|
        B|--------------------------------------------------|
        G|------0-----0-----0-----0-----0-----0-----0-----0-|
        D|---------------------------------0-----------0----|
        A|---------------------2-----0----------------------|
        E|---0-----2-----3-----------------------3----------|
                     "Where  ever   she        goes....."

        RIFF 1 (again)
        e|--------------------------------------------------|
        B|--------------------------------------------------|
        G|------0-----0-----0-----0-----0-----0-----0-----0-|
        D|---------------------------------0-----------0----|
        A|---------------------2-----3-----------2----------|
        E|---0-----2-----3----------------------------------|
                     "And its been   so         cold...."

        RIFF 3 (slowly this time)
        e|---------------------------------------------------------3--|
        B|---------------------------------------------------------3--|
        G|------2-----0-----0-----0-----0-----0-----0-----0(*)-----0--|
        D|---0-----0-----------0-----------0-----------0-----------0--|
        A|---------------2-----------3-----------2-----------------2--|
        E|---------------------------------------------------------3--|
           "All        these       days ......"

(*) <-let it ring out

And that's that! Happy practicing!
Добавлено: 30.12.2015
Другие материалы по этой песне:
  • Аккорды и текст

Страница создана 30.12.2015
http://primanota.ru/john-allred/your-hand-in-mine-chords.htm
Привет, Гость.
Предлагаем пройти революционный курс по гитаре.
Подарок от PrimaNota.Ru, забирай!