PrimaNota.ru - самый крупный в мире бесплатный архив песенных текстов, аккордов, табулатур и нот


John Allred - Summer Is Over - аккорды и текст, видео

Регистрация Запомнить меня
Войти через:  Facebook Google Twitter Vk Yandex Mail.ru

John Allred - Summer Is Over - аккорды и текст, видео

Печатать
Просмотров: 127
Summer Is Over
John Allred
http://www.johnallredmusic.com/
https://www.facebook.com/Allredmusic
https://soundcloud.com/allred
-------------------------------------------------------------------------------
                           Summer is Over - Allred
-------------------------------------------------------------------------------

Tabbed by: Jackson F
Email: jacksonfarny@gmail.com

Tuning:Standard
Capo:4th Fret
Chords and notes relative to capo
G:320033
G/C:023033

Intro
E|---------------------------------------------------------------------|
B|---------------------------------------------------------------------|
G|-----0-------0-----0----2/4\2p0-----0-------0-----0------------------|
D|----0-0-----0-0---0-0--0-----------0-0-----0-0---0-0-----------------|
A|-2/3-----2/3----------2---------2/3-----2/3----------2---------------|
E|----------------0------------------------------0---------------------|

First Verse
E|---------------------------------------------------------------------|
B|------------------------0------------------------------0-------------|
G|-----0-------0-----0-----0----------0-------0-----0-----0------------|
D|----0-0-----0-0---0-0--0-----------0-0-----0-0---0-0--0--------------|
A|-2/3-----2/3----------2---------2/3-----2/3----------2---------------|
E|----------------0------------------------------0---------------------|
"I wish sometimes that I could stare back at the sun, 'cause I'm afraid when I'm alone down here
When all these days just seem to blend back into one, growing old's the only thing we fear"

Chorus
         G/C        G        D             G/C               G 
   "And time won't wait for you, so please make up your mind,
                  D
    if summer is over..."

Second Verse
       G/C              G             D           
   "I won't forget the way the colors in your eyes,
       G/C                G                    D
    remind me that these nights won't last forever
       G/C            G               D
    It took too long just for us to realize
       G/C           G         G/C           D
    That time was all we had for worse or better"

Chorus
         G/C        G        D             G/C               G 
   "And time won't wait for you, so please make up your mind,
                  D
    if summer is over...
        G/C      G        D        G/C             G
    And I won't wait for you, to kiss me one more time
       G/C        D
    It's almost over

Bridge
               Am                                G/C                   
   "When the nights are getting longer, and the feeling's getting stronger
              G                         D
    when I'm looking at a silhouette of you.
         Am                                        G/C
    And there's so much I could say, but all this time I've kept quiet.
              G                        D
    I've been saving all my words for you..."

Chorus
         G/C        G        D             G/C               G 
   "And time won't wait for you, so please make up your mind,
                  D
    if summer is over...
        G/C      G        D        G/C             G
    And I won't wait for you, to kiss me one more time
       G/C        D
    It's almost over
       G/C        D
    It's almost over

       G/C  G  D
       G/C  G  D
END


| /  slide up
| \  slide down
| h  hammer-on
| p  pull-off
| ~  vibrato
| +  harmonic
| x  Mute note
| t  tremolo
| .  palm mute
=============================================================================
Добавлено: 29.06.2015
Вам также может быть интересно:
Другие материалы по этой песне:
  • Аккорды и текст

Страница создана 29.06.2015
http://primanota.ru/john-allred/summer-is-over-chords.htm
Привет, Гость.
Предлагаем пройти революционный курс по гитаре.
Подарок от PrimaNota.Ru, забирай!