PrimaNota.ru - самый крупный в мире бесплатный архив песенных текстов, аккордов, табулатур и нот


John 5 - Welcome To The Jungle - таба, видео

Регистрация Запомнить меня
Войти через:  Facebook Google Twitter Vk Yandex Mail.ru

John 5 - Welcome To The Jungle - таба, видео

Печатать
Просмотров: 135
I couldn't find a version to this tab other than a GuitarPro. For the intro use delay
for the chorus and verses use distortion.
For the part after the 2nd solo use a slide(i think). To get your guitar to sound like
vocals use wah. the timming isn't 100% perfect but very very close.

Legend
hb i/2 bend
qb quarter bend
b  full bend
B  two step bend
Bh two and a half step bend
br bend release
p  pull off
h  hammer on
/  slide up
\  slide down
AH artificial harmonis
PM palm mute
PH pinch harmonic
x  mute string
X\ pick scrape
grt 1
|-----------------------|    |----------------------------|
|-----------------------|    |----------------------------|
|--4-----4------4-4-4---|x2  |--4--4-2--2-----------------|x10
|-----------------------|    |------------4--4-2--2--0----|
|-----------------------|    |-------------------------2--|
|-----------------------|    |----------------------------|

 grt 2
|--------------------------------------7--7/5--5-0---------|
|--------------------------------------7--7/5--5-0---7--5--|
|------------7-9-9b----7qb---------------------------7--6--|
|---7h9--9-------------------7h9--9s2----------------7--7--|
|-------------------------------------------------------0--|
|----------------------------------------------------------|

   pm-----------------------------------------------|
 grt 1
     B5        B5      B5      B5       B5     B5   B5
|------------------------------------------------------|
|------------------------------------------------------|
|---4---------4-------4-------4--------4------4----4---|
|---4---------4-------4-------4--------4------4----4---|
|---2---------2-------2-------2--------2------2----2---|
|------------------------------------------------------|

  grt 2
|-------------------------------------5--5-------------|
|-----------------------3---5-----5hb----5hb---3-------|
|----------------2--4------------------------------4\--|
|---------2--4-----------------------------------------|
|--2--4------------------------------------------------|
|------------------------------------------------------|

VERSE 1

gtr.1    pm     pm                       pm--------------|
|--------------------------|-----------------------------|
|--------------------------|-----------------------------|
|--2------2--2--0----------|--2-x-x-----2-2--0-----------|x2
|--2------2--2--0----------|--2-x-x-----2-2--0-----------|
|--0------0--0-----------0-|--0-x-x-----0-0----------0---|
|----3hb-----------3--2----|--------3hb--------3--2------|

Gtr.1:
E|--------------------x--5-------------------|
B|-------------------------------------------|
G|---2-----------x---------------------------|
D|---2-----------x---------------------------|
A|---0-----0-----x------------------3p0------|
E|----------------------------------------2--|
                                             |
Gtr.2:                                       |
|--------------------------------------------|
|--------------------------------------------|
|-7fb5-----7--5hb----------------------------|
|-------7---------7-5------------------------|
|----------------------7--6--5\3--5--3-------|
|---------------------------------------5--3-|


gtr.1    pm     pm                       pm--------------|
|--------------------------|-----------------------------|
|--------------------------|-----------------------------|
|--2------2--2--0----------|--2-x-x-----2-2--0-----------|
|--2------2--2--0----------|--2-x-x-----2-2--0-----------|
|--0------0--0-----------0-|--0-x-x-----0-0----------0---|
|----3hb-----------3--2----|--------3hb--------3--2------|

  wel-come-to-the-jung-le   we--got---fun-and-games..
grt 2                                                  |
|--------------------------|---------------------------|
|-----------------13hb-----|---------------------------|
|--12--14--14--12------14\-|--12--14---14-12-14\-------|
|--------------------------|---------------------------|
|--------------------------|---------------------------|
|--------------------------|---------------------------|


gtr.1    pm     pm                       pm--------------|
|--------------------------|-----------------------------|
|--------------------------|-----------------------------|
|--2------2--2--0----------|--2-x-x-----2-2--0-----------|
|--2------2--2--0----------|--2-x-x-----2-2--0-----------|
|--0------0--0-----------0-|--0-x-x-----0-0----------0---|
|----3hb-----------3--2----|--------3hb--------3--2------|
                                                       |
grt 2                                                  |
|-------------------------------|----------------------|
|-------------13hb----13--13hb--|----------------------|
|-12-14-14-12-----14------------|-12-14-14--14--12--14-|
|-------------------------------|----------------------|
|-------------------------------|----------------------|
|-------------------------------|----------------------|

grt 1
|--------------------------|--------------------------------|
|--------------------------|--------------------------------|
|--9--9--7-x-9--9----------|--9--9--7-x-9--9----------------|
|--9--9--7-x-9--9--7--6--4-|--9--9--7-x-9--9--7--6--4-------|
|--7--7--5-x-7--7--5--4--2-|--7--7--5-x-7--7--5--4--2-------|
|--------------------------|--------------------------------|

grt 2
|--------------------------|--------------------------------|
|--------------------------|--------------------------------|
|--------------------------|--------------------------------|
|--12--14-14--12--14\------|---------------14b--------------|
|--------------------------|--------12--14-------12--14\----|
|--------------------------|--12h14----------------------14-|

grt 1
|--------------------------|--------------------------------|
|--------------------------|--------------------------------|
|--9--9--7-x-9--9----------|--9--9--7-x-9--9----------------|
|--9--9--7-x-9--9--7--6--4-|--9--9--7-x-9--9--7--6--4-------|
|--7--7--5-x-7--7--5--4--2-|--7--7--5-x-7--7--5--4--2-------|
|--------------------------|--------------------------------|


|-------------------------------------|------------------------------|
|-------------------------------------|------------------------------|
|-----------------12hb----------------|------------------------------|
|--12--14--14--12-------14--14\-------|--12--14--14--12--12--12\--9\-|
|-------------------------------12h14-|------------------------------|
|-------------------------------------|------------------------------|

CHORUS
grt 1
|-------------------------------|---------------------------|
|-------------------------------|---------------------------|
|--9--9-------------------------|--9--9---------------------|
|--9--9-------------------------|--9--9---------------------|
|--7--7--5----------------------|--7--7--5------------------|
|-----------6--6--6\5--5--3--0--|----------6--6--6\5--3--0--|


grt 2
|--------------------------|---------------------------|
|--------------12----------|---------------------------|
|--12qb----14b-------------|-12------------------------|
|-------14-----------------|---14b--14p12--12----------|
|--------------------------|---------------------------|
|--------------------------|---------------------------|

grt 1
|------------------------------------------------------------|
|------------------------------------------------------------|
|----5-------------------------7-----------------------------|
|----5-------------------------7-----------------------------|
|----3----2--------------------5------4----------------------|
|--------------5------3-----------------------7---------5----|


grt 2
|------------------------------------------------------|
|------------------------------------------------------|
|--14--14--12--14--12--14--12\-14-14-14-14-14-14-14-14-|
|------------------------------------------------------|
|------------------------------------------------------|
|------------------------------------------------------|


grt 1
|------------------------------------------------------------|
|------------------------------------------------------------|
|----5-------------------------7-----------------------------|
|----5-------------------------7-----------------------------|
|----3----2--------------------5------4----------------------|
|--------------5------3-----------------------7---------5----|

grt 2
|------------------------------------------------------|
|-----------------------------13\----------------------|
|--14hb--14hb--12hb--14brp12---------------------------|
|------------------------------------------------------|
|------------------------------------------------------|
|------------------------------------------------------|

2nd verse

gtr.1    pm     pm                       pm--------------|
|--------------------------|-----------------------------|
|--------------------------|-----------------------------|
|--2------2--2--0----------|--2-x-x-----2-2--0-----------|
|--2------2--2--0----------|--2-x-x-----2-2--0-----------|
|--0------0--0-----------0-|--0-x-x-----0-0----------0---|
|----3hb-----------3--2----|--------3hb--------3--2------|

                                             PH
|--------------------------|---------------------------|
|----------------13b-------|---------------------------|
|--12--14-14--12------14\--|--12--14--14--12-12\-------|
|--------------------------|---------------------------|
|--------------------------|---------------------------|
|--------------------------|---------------------------|

gtr.1    pm     pm                       pm--------------|
|--------------------------|-----------------------------|
|--------------------------|-----------------------------|
|--2------2--2--0----------|--2-x-x-----2-2--0-----------|
|--2------2--2--0----------|--2-x-x-----2-2--0-----------|
|--0------0--0-----------0-|--0-x-x-----0-0----------0---|
|----3hb-----------3--2----|--------3hb--------3--2------|


|--------------------------------|-------------------------------|
|-------------------13hb---13-13-|-------------------------------|
|--12-14-14--12---14-------------|--12--14-14--12-14-14--14-12qb-|
|--------------------------------|-------------------------------|
|--------------------------------|-------------------------------|
|--------------------------------|-------------------------------|

grt 1
|--------------------------|--------------------------------|
|--------------------------|--------------------------------|
|--9--9--7-x-9--9----------|--9--9--7-x-9--9----------------|
|--9--9--7-x-9--9--7--6--4-|--9--9--7-x-9--9--7--6--4-------|
|--7--7--5-x-7--7--5--4--2-|--7--7--5-x-7--7--5--4--2-------|
|--------------------------|--------------------------------|

grt 2
|--------------------------|--------------------------------|
|--------------------------|--------------------------------|
|--------------------------|--------------------------------|
|--12--14-14--12--14\------|---------------14b--------------|
|--------------------------|--------12--14-------12--14\----|
|--------------------------|--12h14----------------------14-|


grt 1
|--------------------------|--------------------------------|
|--------------------------|--------------------------------|
|--9--9--7-x-9--9----------|--9--9--7-x-9--9----------------|
|--9--9--7-x-9--9--7--6--4-|--9--9--7-x-9--9--7--6--4-------|
|--7--7--5-x-7--7--5--4--2-|--7--7--5-x-7--7--5--4--2-------|
|--------------------------|--------------------------------|


|-------------------------------------|------------------------------|
|-------------------------------------|------------------------------|
|-----------------12hb----------------|------------------------------|
|--12--14--14--12-------14--14\-------|--12--14--14--12--12--12\--9\-|
|-------------------------------12h14-|------------------------------|
|-------------------------------------|------------------------------|


CHORUS 2

|------------------------------------------------------------|
|------------------------------------------------------------|
|----5-------------------------7-----------------------------|
|----5-------------------------7-----------------------------|
|----3----2--------------------5------4----------------------|
|--------------5------3-----------------------7---------5----|


|------------------------------------------------------------|
|---------------12-------------------------------------------|
|--12--------------------------------------------------------|
|---------14----------14p12---14---14b-----------------------|
|------------------------------------------------------------|
|------------------------------------------------------------|

grt 1
|-------------------------------|---------------------------|
|-------------------------------|---------------------------|
|--9--9-------------------------|--9--9---------------------|
|--9--9-------------------------|--9--9---------------------|
|--7--7--5----------------------|--7--7--5------------------|
|-----------6--6--6\5--5--3--0--|----------6--6--6\5--3--0--|


|-----------------------------------------------------------------------|
|-----------------------------------------------------------------15\---|
|--14phb--14--12--14-14---14-14-12--14b--12Br--14--14br-12-14-12--------|
|-----------------------------------------------------------------------|
|-----------------------------------------------------------------------|
|-----------------------------------------------------------------------|


SOLO 1

|------------------------------------------------------------------------|
|----------------------------------12-----------15~--------------15--15~~|
|--12/13-------------13---13~(13)--12--13-x-x---16~--12/11-------13--13~~|
|--11/12-----(12)-14-14---14~(14)------14-x-x--------13/12---------------|
|------------------------------------------------------------------------|
|---------0------------------------------------------------0--0----------|

|--------------------------15--15--------------19fb----19-18-17fb--15-16-|
|~~~(15)p12---14/15--------15--15-----------17---------------------------|
|~~~(13)------15/16----------------6/0--/18------------------------------|
|------------------------------------------------------------------------|
|------------------------------------------------------------------------|
|------------------------------------------------------------------------|

|------------------------------------------------------------------------|
|-15~---(15)\---15fb--(15)-15p12-----------------------------------------|
|---------------------------------14fb--14hb(14)p12--14-12---------------|
|-----------------------------------------------------------14-14--------|
|-----------------------------------------------------------------13-13--|
|------------------------------------------------------------------------|

|--------------------------A.H.------------------------------------------|
|------------------------------------------------------------------------|
|--------------------------8hb-------------------------------------------|
|----------------------------------------------11\-----------------------|
|-12fb-(12)p10-----------------------------------------------------------|
|---------------12-------------------------------------------------------|


AFTER SOLO PLAY THIS
grt 1
|------------------------------------------------------------------------|
|-7-------------------12---13p12---------10\7---7------------------------|
|---7-----------------12------------------------7------------------------| x2
|-----7--6--7----10---12---------12p10---10\7---7-----------------10-----|
|-----------------8---10-------------------------------------------8-----|
|------------------------------------------------------------------------|

grt 2 (REST)
|------------------------------------------------------------------------|
|------------------------------------------------------------------------|
|------------------------------------------------------------------------|
|------------------------------------------------------------------------|
|------------------------------------------------------------------------|
|------------------------------------------------------------------------|

grt 1
|------------------------------------------------------------------------|
|------------------------------------------------------------------------|
|-------6/7-------------9-------9-----9---6/7------------------12---12---|
|-------5/6-------------9-------9-----9---5/6------------------12---12---|
|------------------------------------------------------------------------|
|---0---------0----0---------0-------------------0-------0---------------|


grt 2
|--------------------------------------------------------------------------------|
|--------------------------------------------------------------------------------|
|--/12--14--12---12--------12--14--12-------12---------12-------14b--------------|
|-------------------14--12------------12-------14p12------14p12------------------|
|--------------------------------------------------------------------------------|
|--------------------------------------------------------------------------------|


Solo 2:
|--------------------------------------------------------------------------|
|--------------------------------------------------------------------------|
|-----------------------------------------------9hb-----------11fb--(11)---|
|---------------------------------9-9hb-11-(11)---------11-----------------|
|--------7----9fb--(9)----7-7-9/11-----------------------------------------|
|--9--------9--------------------------------------------------------------|

|----------------------------------------------------------------------0---|
|-------------------------------12-(12)-------12--------------------5--5---|
|--(11)----11fb(11)p9-----9hb---11-(11)-------11-(11)p9------------6-6-----|
|----------------------11-------------------------------11-9-(9)/6---------|
|--------------------------------------------------------------------------|
|--------------------------------------------------------------------------|

|--(0)--0--0--0------------------------------------------------------------|
|--(5)--3--2--0---2hb--2hb--0----0----0--(0)--0--0--0--0--2--4-------------|
|-----------------2hb--2hb--0--1-1--2-4--(4)--4--2--2--1--2--4-------------|
|---------------------------------------------------------4--4--2fb(2)p0-2-|
|--------------------------------------------------------------------------|
|--------------------------------------------------------------------------|

|--------------------------------------------------------------------------|
|---------15-15fb-(15)-15fb(15)--------------------------------14\12-------|
|-/4----------------------------14fb-14fb--14fb(14)p12----------------6hb--|
|-/4--/12-----------------------------------------------14-12--14\12-------|
|--------------------------------------------------------------------------|
|--------------------------------------------------------------------------|

|--------------------------------------------------------------------------|
|--------------------------------------------------------------------------|
|--(6)--4------------------------------------------------------------------|
|----------6hb------4------------------------------------------------------|
|---------------------4-(4)--2---------------------------------------------|
|------------------------------4hb----0--2----------------------------(2)--|

BARE WITH ME FOR THIS PART. I'VE FOUND THE BEST WAY TO PLAY THIS PART IS TO IMPROVISE
A SLIDE AROUND THE 19TH FRET
I'M GOING TO TAB HOW I PLAY IT BUT YOU DON'T HAVE TO GO BY WHAT I'M TABING.
USE ECHO OR DELAY I'M NOT SURE

GRT 2         |*STRUM VERY CLOSE TO THE BRIDGE TO GET THIS SOUND
|----------------------------------------------------------------------------------|
|--2/---19----19----19\---15\---9\--0--2--2--/19--X--------------------------------|
|--2/---19-----------------------------2--2--/19--X--12--12-14-12-14-12\--12--14---|
|----------------------------------------------------------------------------------|
|----------------------------------------------------------------------------------|
|----------------------------------------------------------------------------------|

----------------------------------|
----------------------------------|
12---------------12-14-12--12hbr\-|
---14--12\------------------------|
----------------------------------|
----------------------------------|

grt 1
|--------------------------------------------------------------|
|--------------------------------------------------------------|
|----5-------------------------7-------------------------------|
|----5-------------------------7-------------------------------|
|----3----2--------------------5------4------------------------|
|--------------5------3--0--------------------7---------5---3--|


ENDING CHORUS


grt 1
|-------------------------------|---------------------------|
|-------------------------------|---------------------------|
|--9--9-------------------------|--9--9---------------------|
|--9--9-------------------------|--9--9---------------------|
|--7--7--5----------------------|--7--7--5------------------|
|-----------6--6--6\5--5--3--0--|----------6--6--6\5--3--0--|


grt 2
|--------------------------|---------------------------|
|-----------12-----===-----|-------13-------13---------|
|--12----------------------|---14------14--------------|
|-------14-----------------|---------------------------|
|--------------------------|---------------------------|
|--------------------------|---------------------------|

grt 1
|------------------------------------------------------------|
|------------------------------------------------------------|
|----5-------------------------7-----------------------------|
|----5-------------------------7-----------------------------|
|----3----2--------------------5------4----------------------|
|--------------5------3-----------------------7---------5----|


grt 2
|------------------------------------------------------|
|------------------------------------------------------|
|--14--14--12--14--12--14--12\-14-14-14-14-14-14-14-14-|
|------------------------------------------------------|
|------------------------------------------------------|
|------------------------------------------------------|


grt 1
|------------------------------------------------------------|
|------------------------------------------------------------|
|----5-------------------------7-----------------------------|
|----5-------------------------7-----------------------------|
|----3----2--------------------5------4----------------------|
|--------------5------3-----------------------7---------5----|

grt 2
|------------------------------------------------------|
|-----------13\----------------------------------------|
|--14hb------------------------------------------------|
|------------------------------------------------------|
|------------------------------------------------------|
|------------------------------------------------------|


grt 1
|------------------------------------------------------------|
|------------------------------------------------------------|
|----5-------------------------7-----------------------------|
|----5-------------------------7-----------------------------|
|----3----2--------------------5------4----------------------|
|--------------5------3-----------------------7---------5----|

grt 2
|------------------------------------------------------------|
|---------------12-------------------------------------------|
|--12--------------------------------------------------------|
|---------14-------------------------------------------------|
|------------------------------------------------------------|
|------------------------------------------------------------|


grt 1
|------------------------------------------------------------|
|------------------------------------------------------------|
|----5-------------------------7-----------------------------|
|----5-------------------------7-----------------------------|
|----3----2--------------------5------4----------------------|
|--------------5------3-----------------------7---------5----|

grt 2
|------------------------------------------------------|
|------------------13-----13\--------------------------|
|--14hb--14hb--14-----14-------------------------------|
|------------------------------------------------------|
|------------------------------------------------------|
|------------------------------------------------------|


grt 1
|------------------------------------------------------------|
|------------------------------------------------------------|
|----5-------------------------7-----------------------------|
|----5-------------------------7-----------------------------|
|----3----2--------------------5------4----------------------|
|--------------5------3-----------------------7---------5----|

grt 2
|------------------------------------------------------------|
|---------------12-------------------------------------------|
|--12--------------------------------------------------------|
|---------14----------14p12---14---14b-----------------------|
|------------------------------------------------------------|
|------------------------------------------------------------|


grt 1
|------------------------------------------------------------|
|------------------------------------------------------------|
|----5-------------------------7-----------------------------|
|----5-------------------------7-----------------------------|
|----3----2--------------------5------4----------------------|
|--------------5------3-----------------------7---------5----|


grt 2
|------------------------------------------------------|
|------------------------------------------------------|
|--14--14--12--14--12--14--12\-14-14-14-14-14-14-14-14-|
|------------------------------------------------------|
|------------------------------------------------------|
|------------------------------------------------------|

grt 1
|------------------------------------------------------------|
|------------------------------------------------------------|
|----5-------------------------7-----------------------------|
|----5-------------------------7-----------------------------|
|----3----2--------------------5------4----------------------|
|--------------5------3-----------------------7---------5----|

grt 2
|------------------------------------------------------------|
|---------------12-------------------------------------------|
|--12--------------------------------------------------------|
|---------14----------14p12---14---14b-----------------------|
|------------------------------------------------------------|
|------------------------------------------------------------|

grt 1
|----------------------------------------------3-----(3)\----------------|
|----------------------------------------------3-----(3)\----------------|
|---9---7---------------------6---4---1--------1-----(1)\----------------|
|---9---7----8----7---5-------7---5---2--------2-----(2)\----------------|
|---7---5----8----7---5-------7---5---2--------2-----(2)\----------------|
|------------6----5---3---0---5---3---0--------0-----(0)\*---------------|
                                                          SLOWLY DETUNE E STRING

|------------------------------------------------------------------------|
|------------------------------------------------------------------------|
|------------------------------------------------------------------------|
|------------------------------------------------------------------------|
|-------------------------------------------------------------X\---------|
|-------------------------------------------------------------X\---------|


THERE IT IS. HOPE YOU ENJOY GREAT SONG GREAT ARTIST. I'M NOT COMPLETLEY SURE ABOUT THE
CHORUS BUT JUST PLAY AROUND
A LITTLE THERE ARE NUMEROUS WAYS TO SOUND LIKE THE LYRICS!!! THANK YOU AND PLEASE RATE!
Добавлено: 22.02.2012
Другие материалы по этой песне:

Страница создана 22.02.2012
http://primanota.ru/john-5/welcome-to-the-jungle-chords.htm
Привет, Гость.
Предлагаем пройти революционный курс по гитаре.
Подарок от PrimaNota.Ru, забирай!