PrimaNota.ru - самый крупный в мире бесплатный архив песенных текстов, аккордов, табулатур и нот


John 5 - Pulling Strings - таба, видео

Регистрация Запомнить меня
Войти через:  Facebook Google Twitter Vk Yandex Mail.ru

John 5 - Pulling Strings - таба, видео

Печатать
Просмотров: 189
  Artist: John5
  Album: Vertigo
  Track: 3
  Song: Pulling Strings
  Tunning: Standard

  This entire intro is done finger style (hence it's name)
  Enjoy, it was done entirely by ear and once u get the hang of it
  it's a very fun catchy riff to play.


  e------------------------------------------------------|
  B------------------------------------------------------|    play this very very
  G---5-----7-----5---7------5-----7-----5--7--0---------|      fast. but if ur new
  D-----0-----0---5---7--------0-----0---5--7--0---------|    at this u should try
  A-0-----0-----0---0---0---0----0-----0-----------------|     slow first
  E------------------------------------------------------|
                                      p    P P
  e----------------------------------8^5-----------------|
  B------------------------------5----------------5-6----|
  G---5-----7-----5---7--0---7/8---8------8^7^5---5-5----|
  D-----0-----0---5---7--0----------------------7--------|
  A-0-----0-----0---0------------------------------------|
  E------------------------------------------------------|

  e------------------------------------------------------------|
  B------------------------------------------------------------|
  G---5-----7-----5---7------5-----7-----5--7--0---------------|
  D-----0-----0---5---7--------0-----0---5--7--0---------------|
  A-0-----0-----0---0---0--0-----0-----0-----------------------|
  E------------------------------------------------------------|
                            h h     h h     h h
  e----------------------------------------------------------------|
  B----------------------------------------------------------------|
  G---5-----7-----5---7----------5-------4-------3--3--------------|
  D-----0-----0---5---7----------5-------4-------3--2--------------|
  A-0-----0-----0---0---0--0^5^7---0^4^7---0^3^5----3--------------|
  E----------------------------------------------------------------|

  verse
  e-------------------------------------------------------------------|
  B-------------------------------------------------------------------|
  G-------------------------------------------------------------------|   repeat
  D--2------------------------------2------------------------2--------|
  A--0--3-0-5-0-3-0-5-0--3-0-5-0----0--3-0-5-0-3-0-5-0-3-0-5-0--------|
  E------------------------------3------------------------------------|

  fill
      h p   t p p p    h p   t p p p   h p    t p p p   t
  e-------------------------------------------------------------|
  B-------------------------------------------------------------|
  G--3^5^0--19^5^3^0--3^5^0--17^5^3^0--3^5^0--12^5^3^0--12/-----|
  D-------------------------------------------------------------|
  A-------------------------------------------------------------|
  E-------------------------------------------------------------|
    *when u tap this last note slide up twoards the bridge with your
    tapping finger

  Main riff
  e-----------------------------------------------------------------------|
  B-----------------------------------8-----------------------------------|
  G----5--7--5--7^(9)--5-------5-7-5--------------------------------------|
  D--7--------------------7--7--------------------------------------------|
  A-----------------------------------------------------------------------|
  E-----------------------------------------------------------------------|
     The main riff goes something like this It's definatley in this
   penatonic region so it's pretty close
      On this section he uses a tremblo pedal with speed probably set
    on steroids. There's probably a wah effect thrown in there too

    Great song i'm sure about most of it. i know i tabbed a bit more than
  the intro so bite me. If u find some parts that need revising don't freak
   and just post it.
Добавлено: 30.06.2012
Другие материалы по этой песне:

Страница создана 02.05.2012
http://primanota.ru/john-5/pulling-strings-chords.htm
Привет, Гость.
Предлагаем пройти революционный курс по гитаре.
Подарок от PrimaNota.Ru, забирай!