PrimaNota.ru - самый крупный в мире бесплатный архив песенных текстов, аккордов, табулатур и нот


John 5 - First Victim - таба, видео

Регистрация Запомнить меня
Войти через:  Facebook Google Twitter Vk Yandex Mail.ru

John 5 - First Victim - таба, видео

Печатать
Просмотров: 133
As recorded by John 5
(From the 2007 Album THE DEVIL KNOWS MY NAME)

Transcribed by tonedeafidiot
        

Music by John 5

Gtr I (B E A D Gb B) - '2 Distortion Guitars w/Bow'
Gtr II (E A D G B E) - 'Distortion w/Bow 2'

 A
  Free Time 
 4/4
  Gtr I
   W          H    H      H    H
|-----------:-----------:-----------:
|-----------:-----------:-----------:
|-----------:-----------:-----------:
|-----------:-----------:-----------:
|-----------:-----------:-----------:
|-12S=======:=0----3----:-2----6----:


                            B
  Gtr II
                                  <
  W              W           H    H      +W
|-------------:-----------||------7----:-(7)---------:
|-------------:-----------||-----------:-------------:
|-------------:-----------||-----------:-------------:
|-------------:-----------||-----------:-------------:
|-------------:-----------||-----------:-------------:
|-------------:-----------||-----------:-------------:
|
| Gtr I
| H      H       W           H    H       H     H
|-------------:-----------||-----------:-------------:
|-------------:-----------||-----------:-------------:
|-------------:-----------||-----------:-------------:
|-------------:-----------||-----------:-------------:
|-------------:-----------||-----------:-------------:
|-5----/13----:-12S=======||=0----3----:--2-----6----:


                              C
  +W              +W           +H       H
|-(7)-----------:-(7)-------||-(7)----/10----:
|---------------:-----------||---------------:
|---------------:-----------||---------------:
|---------------:-----------||---------------:
|---------------:-----------||---------------:
|---------------:-----------||---------------:
|
|  H       H       W            H       H
|---------------:-----------||---------------:
|---------------:-----------||---------------:
|---------------:-----------||---------------:
|---------------:-----------||---------------:
|---------------:-----------||---------------:
|--5-----/13----:-12S=======||==0-------3----:


   H      H       H      H       H     +H
|-\9----/13----:-12----/20----:-19----(19)S====||
|--------------:--------------:----------------||
|--------------:--------------:----------------||
|--------------:--------------:----------------||
|--------------:--------------:----------------||
|--------------:--------------:----------------||
|
|  H      H       H      H       W
|--------------:--------------:----------------||
|--------------:--------------:----------------||
|--------------:--------------:----------------||
|--------------:--------------:----------------||
|--------------:--------------:----------------||
|--2------6----:--5----/13----:-12S============||


  Q.   +E   H       H       H       Q.    +E   H
|-7----(7)S10----:--9-----/13----:-12----(12)S20----:
|----------------:---------------:------------------:
|----------------:---------------:------------------:
|----------------:---------------:------------------:
|----------------:---------------:------------------:
|----------------:---------------:------------------:
|
|                   >
| W                +W              +H          H
|----------------:---------------:------------------:
|----------------:---------------:------------------:
|----------------:---------------:------------------:
|----------------:---------------:------------------:
|----------------:---------------:------------------:
|-0--------------:-(0)-----------:-(0)--------------:


   H     +H        H.      Q    W
|-19----(19)s===:=16S=====13--:------*|
|---------------:-------------:------*|
|---------------:-------------:------*|
|---------------:-------------:------*|
|---------------:-------------:------*|
|---------------:-------------:------*|



Duration Legend
---------------
W - whole; H - half; Q - quarter; E - 8th; S - 16th; T - 32nd; X - 64th; a - acciaccatura
+ - note tied to previous; . - note dotted; .. - note double dotted
Uncapitalized letters represent notes that are staccato (1/2 duration)
Irregular groupings are notated above the duration line
Duration letters will always appear directly above the note/fret number it represents the
duration for.  Duration letters with no fret number below them represent rests.  Multi-
bar rests are notated in the form Wxn, where n is the number of bars to rest for.  Low
melody durations appear below the staff

Tablature Legend
----------------
 h   - hammer-on
 p   - pull-off
 b   - bend
 pb  - pre-bend
 r   - bend release (if no number after the r, then release immediately)
 /\  - slide into or out of (from/to "nowhere")
 s   - legato slide
 S   - shift slide
 - natural harmonic
[n]  - artificial harmonic
n(n) - tapped harmonic
 ~   - vibrato
 tr  - trill
 T   - tap
 TP  - trem. picking
 PM  - palm muting
\n/  - tremolo bar dip; n = amount to dip
 \n  - tremolo bar down
 n/  - tremolo bar up
/n\  - tremolo bar inverted dip
 =   - hold bend; also acts as connecting device for hammers/pulls
 <> - volume swell (louder/softer)
 x   - on rhythm slash represents muted slash
 o   - on rhythm slash represents single note slash

Misc Legend
-----------
 |  - bar
||  - double bar
||o - repeat start
o|| - repeat end
*|  - double bar (ending)
 :  - bar (freetime)
 $  - Segno
 &  - Coda
Tempo markers -  = BPM(8/16=s8/s16), where s8 = swing 8ths, s16 = swing 16ths

Добавлено: 03.03.2012
Другие материалы по этой песне:

Страница создана 03.03.2012
http://primanota.ru/john-5/first-victim-chords.htm
Привет, Гость.
Предлагаем пройти революционный курс по гитаре.
Подарок от PrimaNota.Ru, забирай!