PrimaNota.ru - самый крупный в мире бесплатный архив песенных текстов, аккордов, табулатур и нот


John 5 - Behind The Nut Love - таба, видео

Регистрация Запомнить меня
Войти через:  Facebook Google Twitter Vk Yandex Mail.ru

John 5 - Behind The Nut Love - таба, видео

Печатать
Просмотров: 155
-------------------------------------------------------------------------------
                             "Behind The Nut Love" --- John 5
-------------------------------------------------------------------------------

Tabbed by: [travis]


Tuning: D A D Gb A D (low to high)


Key: D Major === D E F# G A B C#



Legend:

h = hammer on
p = pull off
b = bend
.5 = half step bend
1 = whole step bend
T = tap
~ = vibrato / ring
* = harmonic
__ = hold bend
() = bent note back to normal / note not picked
/ = slide up
\ = slide down
H = "hammer on from no where"


*****All bends are bent "behind the nut." Duh.******

*****All taps are "tapped harmonics."*********

*****Fingerpick the whole song.*******

===================================
Guitar 1:
             T    T         T     T        T          T    T         T     T       T
D |--------------------------------------0(12)-----------------------------------0(12)-|
A |--------------------------------------0(12)-----------------------------------0(12)-|
Gb|--------------------------------------0(12)-----------------------------------0(12)-|
D |--------------------------------------0(12)-----------------------------------0(12)-|
A |-H5h/7-------0(19)-----0(19)-0(19)H5-------H5h/7------0(19)-----0(19)-0(19)H5-------|
D |-H5h/7--0(19)-----H5h7------------H5-------H5h/7-0(19)-----H5h7------------H5-------|


Guitar 1:
             T    T         T     T        T 
D |--------------------------------------0(12)~~~~~~~~-5*~~~~~~~-|
A |--------------------------------------0(12)~~~~~~~~-5*~~~~~~~-|
Gb|--------------------------------------0(12)~~~~~~~~-5*~~~~~~~-|
D |--------------------------------------0(12)~~~~~~~~-5*~~~~~~~-|
A |-H5h/7-------0(19)-----0(19)-0(19)H5----------------5*~~~~~~~-|
D |-H5h/7--0(19)-----H5h7------------H5--------0~~~~~~-5*~~~~~~~-|

===================================
Guitar 1:
     1__________          1___________         1________         .5________
D |-------0--------------0b--0-----0--(0)----------0--------------------------------|
A |-0b------0---(0)--------------0--------0---0b-----0--(0)-----------0-------------|
Gb|-----------------0-----------------------0---------------0----0b-----0--(0)------|
D |--------------------0---------------------------------------0---------------0----|
A |-------------------------------------------------------------------------------0-|
D |-0--------------------0--------------------0------------------0------------------|

Guitar 1:
     1_________          1___________         1__         1__          
D |------0--------------0b--0-----0--(0)--------------------------------------0------|
A |-0b-----0---(0)--------------0--------0-------------------------------0-------0---|
Gb|----------------0-----------------------0---------0---------------------0-------0-|
D |-------------------0----------------------0b--(0)---0---------0-------------------|
A |------------------------------------------------------0b--(0)---0-----------------|
D |-0-------------------0---------------------------------------------0--------------|

Guitar 1:
     1_________          1___________         1________          .5________
D |-------0-------------0b--0-----0--(0)----------0---------------------------------|
A |-0b------0--(0)--------------0--------0---0b-----0--(0)------------0-------------|
Gb|----------------0-----------------------0---------------0-----0b-----0--(0)------|
D |-------------------0---------------------------------------0----------------0----|
A |-------------------------------------------------------------------------------0-|
D |-0-------------------0--------------------0-------------------0------------------|

Guitar 1:
     1__         1__        .5__
D |-------------------------------------------7p4p0--------------------------|
A |-----------------------------0-------------------4p2p0-----------------0--|
Gb|---------0---------------0b----0--(0)------------------3------------------|
D |-0b--(0)---0---------0----------------0------------------5-4-2---0--------|
A |-------------0b--(0)---0-----------------0---------------------4----------|
D |--------------------------------------------------------------------0-----|

Guitar 1:
D |-9p0----------0---7p0----------0------------7p5--------------0------|
A |-----0---7h/9---0-----0---5h/7---0------7-------5-------0-------0---|
Gb|-------0----------------0-----------------7-------5-------0-------0-|
D |--------------------------------------------------------------------|
A |--------------------------------------------------------------------|
D |-0----------------0----------------5h/7--------------0--------------|

Guitar 1:
                                              1__          1__
D |-9p0----------0---7p0----------0--------------------------------------|
A |-----0---7h/9---0-----0---5h/7---0------------------------------------|
Gb|-------0----------------0-----------------5b--(5)-----10b--(10)-------|
D |--------------------------------------7-----------7-7-----------12----|
A |-----------------------------------7----7--------------------------12-|
D |-0----------------0---------------------------------------------------|

Guitar 1: If you don't have a 24th fret, tap above the pickups.
      T    1________          1___________         1_________         .5_______
D |------------0-------------0b--0-----0--(0)----------0--------------------------------|
A |---0(24)b-----0--(0)--------------0--------0---0b-----0---(0)----------0-------------|
Gb|---------------------0-----------------------0----------------0----0b----0--(0)------|
D |------------------------0----------------------------------------0--------------0----|
A |-----------------------------------------------------------------------------------0-|
D |-0------------------------0--------------------0-------------------0-----------------|

Guitar 1:
     1__________           1_____________         1__         1__
D |-------0---------------0b---0------0--(0)--------------------------------------0------|
A |-0b------0---(0)-----------------0--------0-------------------------------0-------0---|
Gb|-----------------0--------------------------0---------0---------------------0-------0-|
D |--------------------0-------------------------0b--(0)---0---------0-------------------|
A |----------------------------------------------------------0b--(0)---0-----------------|
D |-0---------------------0-----------------------------------------------0--------------|

Guitar 1:
     1________           1______________          1________          .5________
D |------0--------------0b---0------0---(0)-----------0---------------------------------|
A |-0b-----0--(0)-----------------0---------0----0b-----0--(0)------------0-------------|
Gb|---------------0---------------------------0----------------0-----0b-----0--(0)------|
D |------------------0--------------------------------------------0----------------0----|
A |-----------------------------------------------------------------------------------0-|
D |-0-------------------0------------------------0-------------------0------------------|

Guitar 1:
                              1__                               1__
D |-5p4---2p0---5p4---2p0------------------0------------------------------|
A |-----0-----0-----0--------------------0---0----------------------------|
Gb|-----------------------0------------0-------0-----0--------------------|
D |--------------------------0b--(0)-0-----------4p2---2h4--0-------------|
A |-----------------------------------------------------------------------|
D |------------------------------------------------------------7b--(7)--0-|

Guitar 1:
D |-9p0----------0---7p0----------0-----------7p5--------------0------|
A |-----0---7h/9---0-----0---5h/7---0-----7-------5-------0-------0---|
Gb|-------0----------------0----------------7-------5-------0-------0-|
D |-------------------------------------------------------------------|
A |-------------------------------------------------------------------|
D |-0----------------0----------------5h7--------------0--------------|

Guitar 1:
D |-9p0----------0---7p0----------0-----------0-------------0-------------0-------0---|
A |-----0---7h/9---0-----0---5h/7---0-----0-------------0-------------0---------0---0-|
Gb|-------0----------------0----------5h6---6---5h6-5h6---6---6h7-6h7---7---7h8-------|
D |-----------------------------------------------------------------------------------|
A |-----------------------------------------------------------------------------------|
D |-0----------------0----------------------------------------------------------------|

Guitar 1:
D |-9p0----------0---7p0----------0-----------7p5--------------0------|
A |-----0---7h/9---0-----0---5h/7---0-----7-------5-------0-------0---|
Gb|-------0----------------0----------------7-------5-------0-------0-|
D |-------------------------------------------------------------------|
A |-------------------------------------------------------------------|
D |-0----------------0----------------5h7--------------0--------------|

Guitar 1:
D |-9p0----------0---7p0----------0----------------------------------5*~~~~~~|
A |-----0---7h/9---0-----0---5h/7---0------------------------------5*~~~~~~~~|
Gb|-------0----------------0---------------------------12*-------5*~~~~~~~~~~|
D |-----------------------------------5h7-7*-7*-7-7*-5-12*-----5*~~~~~~~~~~~~|
A |-----------------------------------5h7-7*-7*-7-7*-5-12*-------------------|
D |-0----------------0----------------5h7-7*-7*-7-7*-5------0----------------|


Please Rate And Comment.
Thanks.
[travis]

Добавлено: 09.03.2012
Другие материалы по этой песне:

Страница создана 09.03.2012
http://primanota.ru/john-5/behind-the-nut-love-chords.htm
Привет, Гость.
Предлагаем пройти революционный курс по гитаре.
Подарок от PrimaNota.Ru, забирай!