PrimaNota.ru - самый крупный в мире бесплатный архив песенных текстов, аккордов, табулатур и нот


John 5 - 27 Needles - таба, видео

Регистрация Запомнить меня
Войти через:  Facebook Google Twitter Vk Yandex Mail.ru

John 5 - 27 Needles - таба, видео

Печатать
Просмотров: 178
This is probably the most bluegrassy part of the song. From about 4:07-4:30. 

|0--------------|---------------|1-------0------|0-------0-------|
|--1---1-3---1--|1-----1-0------|--0-------0-3h4|--1---1---1----1|
|----------0---0|--2-------0---0|------0--------|----------------|
|---------------|----3----------|---------------|----------------|
|3-------3------|------------2--|----2----------|3-------3-------|
|----3-------3--|1-------3------|3-------3------|----3-------3---|

|--3-----1---0--|0--------------|0-----------5---5\|--------3-----|
|------2---2---2|--1-----0---1--|--1---1-----4---4\|--3-----------|
|---------------|----------2---2|------------5---5\|----0---------|
|---------------|0-----0-0------|0-------2/4---4---|------0-------|
|0-------0------|---------------|------------------|-----------0-2|
|----0-------0--|----2-------2--|----2-------------|3---------3---|

|0--------------|---------------|1-------0------|0-------0-------|
|--1---1-3---1--|1-----1-0------|--0-------0-3h4|--0---0---0---0h|
|----------0---0|--2-------0---0|------0--------|----------------|
|---------------|----3----------|---------------|----------------|
|3-------3------|------------2--|----2----------|----2-------2---|
|----3-------3--|1-------3------|3-------3------|0-------0-------|

|---3-----1---0--|0-----------1--|---------------|----0---8\-----|
|h2-----2---2---2|--1-----0------|1-----1-0-----0|1---1---8-\----|
|----------------|----------2---2|--0-------0----|--0-----7--\---|
|----------------|0-----0-0------|---------------|--------7---\--|
|-0-------0------|---------------|3-----------2--|3-----0------\-|
|-----0-------0--|----2-------2--|----3---3------|----3---------\|

I know it's not the neatest tab but I know it's right. Got it straight out of the 
book.

:)
Добавлено: 30.07.2012
Другие материалы по этой песне:

Страница создана 02.04.2012
http://primanota.ru/john-5/27-needles-chords.htm
Привет, Гость.
Предлагаем пройти революционный курс по гитаре.
Подарок от PrimaNota.Ru, забирай!