PrimaNota.ru - самый крупный в мире бесплатный архив песенных текстов, аккордов, табулатур и нот


John 5 - 18969 Ventura Blvd - таба, видео

Регистрация Запомнить меня
Войти через:  Facebook Google Twitter Vk Yandex Mail.ru

John 5 - 18969 Ventura Blvd - таба, видео

Печатать
Просмотров: 129
Originally tabbed by Mortuary Slayer, translated to text for friends/people without guitar pro.


guitar 1



                 PM PM PM                               
     H        E  E  E  E       E  E  E  E  E  S E.  E   
E||-----------------------||------------------------5--|
B||-----------------------||------3-----3-----3--------|
G||-----------------------||*-----0-----0-------2------|
D||-----------------------||*--------------------------|
A||-----------------------||---------------0-----------|
E||--------------0--1--2--||---3-----4-----------------|


  E  E  E  E  E  S E   S  E     E  E  E  E  E  E  E  E   
--------------------------5--|--7-----------------------|
-----3-----3-----3-----------|-----7--8--4--5-----------|
-----0-----0-------2--(2)----|-----------------4--5--6--|
-----------------------------|--------------------------|
--------------0--------------|--------------------------|
--3-----4--------------------|--------------------------|


  E  E  E  E  E  E   Q           E  E  E  E  E  E  S E.     
--------6--5--3--------------||--------6--5--3------------||
--------6--5--3--------------||--------6--5--3------------||
--7-------------------------*||--7------------------------||
-----0----------------------*||-----x---------------------||
-----------------4--(5)b-----||---------------------------||
--7-----------3--------------||--7-----------3-------5/---||

guitar 2



               E  E  E  E  E  S E.  E     E  E  E  E  E  S E   S  E   
E||-------||------------------------5--|--------------------------5--|
B||-------||------3-----3-----3--------|-----3-----3-----3-----------|
G||-------||*-----0-----0-------2------|-----0-----0-------2--(2)----|
D||-------||*--------------------------|-----------------------------|
A||-------||---------------0-----------|--------------0--------------|
E||-------||---3-----4-----------------|--3-----4--------------------|


  E  E   E  E  E  E  E  E     E  E  E  E  E  E   Q         
---------------------------|--------6--5--3--------------||
---------------------------|--------6--5--3--------------||
---------------------------|--7-------------------------*||
--9------------------------|-----0----------------------*||
-----9--10--6--7-----------|-----------------4--(5)b-----||
------------------4--5--6--|--7-----------3--------------||


  E  E  E  E  E  E  S E.     
--------6--5--3------------||
--------6--5--3------------||
--7------------------------||
-----x---------------------||
---------------------------||
--7-----------3-------5/---||

Добавлено: 14.06.2012
Вам также может быть интересно:
Другие материалы по этой песне:

Страница создана 07.03.2012
http://primanota.ru/john-5/18969-ventura-blvd-chords.htm
Привет, Гость.
Предлагаем пройти революционный курс по гитаре.
Подарок от PrimaNota.Ru, забирай!