PrimaNota.ru - самый крупный в мире бесплатный архив песенных текстов, аккордов, табулатур и нот


Johansson Jan - Visa Fran Utanmyra - таба, видео

Регистрация Запомнить меня
Войти через:  Facebook Google Twitter Vk Yandex Mail.ru

Johansson Jan - Visa Fran Utanmyra - таба, видео

Печатать
Просмотров: 98
Artist: Jan Johansson
Song  : Visa från Utanmyra
Album : Jazz på svenska (Megafon 1964)
        Folkvisor (Heptagon 1994)

Transcribed by John Gustafsson

   Am          E            Am          E      
E-|------------------------|------------------------|
B-|------------------------|------------------------|
G-|------------------------|------------------------|
D-|------------------------|------------------------|
A-|0----------/7-----------|-----------/7-----------|
E-|------------------0---4-|5-----------------0---4-|

   Am          E            Am          E      
E-|------------------------|------------------0-----|
B-|------------------------|----------------------3-|
G-|------------------------|------------------------|
D-|------------------------|------------------------|
A-|-----------/7-----------|-----------/7-----------|
E-|5-----------------0---4-|5-----------------0-----|

   Am          E            Am                B7     
E-|------------------------|------------------------|
B-|1-----------------------|------------------0---4-|
G-|------2-----1-----1-----|2-----------------------|
D-|----------------------2-|------------------------|
A-|0-----------------------|0-----------0-----2-----|
E-|------------0-----------|------------------------|

   E           E7           Am          E           
E-|0-----0-----0-----------|------------------0-----|
B-|------------------3---0-|1-----------0---------3-|
G-|------------------------|------------------------|
D-|------------------------|------------2-----------|
A-|------------------------|0-----0---2-------------|
E-|0-----------0-----0-----|------------------0-----|

   Am          E7/D         C           Am           
E-|------------------------|------------------------|
B-|1-----------------------|------------------0---3-|
G-|------2-----1-----1-----|2-----------------------|
D-|------------0---------2-|------------------------|
A-|0-----------------------|3---------2-0-----------|
E-|------------------------|------------------3-----|

   C                 D      Am          E
E-|0-----------0-----------|------------------------|
B-|------------------3---0-|1-----------0---------0-|
G-|------------------------|------------------------|
D-|------------------0-----|2-----------------2-----|
A-|3-----2-----3-----------|------------------------|
E-|------------------------|------------0-----------|

   Am          E            C           G/B          
E-|------------------------|0---------------------0-|
B-|1-----------0-----1---3-|------------------------|
G-|------2-----------------|0-----------0-----------|
D-|------------------------|------------------------|
A-|0-----------------------|3-----------2-----------|
E-|------------0-----------|------------------------|

   Am          G            Dm/F        E
E-|3-----0-----0-----------|------------------0-----|
B-|------------------1-----|3---------------------3-|
G-|0-----------0-----------|2-----------1-----------|
D-|------------------------|------------------------|
A-|0-----------------------|------------------------|
E-|------------3-----------|1-----------0-----0-----|

   Am          E            F           C            
E-|------------------------|------------3---------0-|
B-|1-----0-----------------|------------------3-----|
G-|----------2-1-----1-----|2---------------------0-|
D-|------------2--------2--|3---------0-2-----------|
A-|0-----------------------|------3-----3-----------|
E-|------------0-----------|1-----1-----------------|

   Am          G            Am          E
E-|------------------------|------------------------|
B-|1---------3-0-----------|------------------------|
G-|2-----------------0-----|2-----------------------|
D-|------------------------|------------------------|
A-|0-----------------------|0----------/7-----------|
E-|------------3-----------|------------------0---4-|

   Am          E            Am          E           
E-|------------------------|------------------------|
B-|------------------------|------------------------|
G-|------------------------|------------------------|
D-|------------------------|------------------------|
A-|5----------/7-----------|-----------/7-----------|
E-|------------------0---4-|5-----------------0---4-|

   Am          E            Am      
E-|------------------------|------------------------|
B-|------------------------|------------------------|
G-|------------------------|------------------------|
D-|------------------------|------------------------|
A-|-----------/7-----------|------------------------|
E-|5-----------------0---4-|5-----------------------|
     
Добавлено: 07.11.2013
Вам также может быть интересно:
Другие материалы по этой песне:

Страница создана 17.09.2013
http://primanota.ru/johansson-jan/visa-fran-utanmyra-chords.htm
Привет, Гость.
Предлагаем пройти революционный курс по гитаре.
Подарок от PrimaNota.Ru, забирай!