PrimaNota.ru - самый крупный в мире бесплатный архив песенных текстов, аккордов, табулатур и нот


Johansson Jan - Brudmarsch Efter Larshoga Jonke - таба, видео

Регистрация Запомнить меня
Войти через:  Facebook Google Twitter Vk Yandex Mail.ru

Johansson Jan - Brudmarsch Efter Larshoga Jonke - таба, видео

Печатать
Просмотров: 77
Artist: Jan Johansson
Song  : Brudmarsch efter Larshöga Jonke
Album : Jazz på svenska (Megafon 1964)
        Folkvisor (Heptagon 1994)

Transcribed by John Gustafsson
           
E-|------------------------|
B-|------------------------|
G-|---------------------4--|
D-|------------------7-----|
A-|------------------------|
E-|------------------------|

THEME 1A

   Am                       Dm                C
E-|------------------------|------------------------|
B-|------------------------|------------------------|
G-|5--------7--5-----4-----|7--------9--7-----9--11-|
D-|---------------------7--|0-----------------------|
A-|0-----------------------|------------------------|
E-|------------------------|------------------8-----|

   Em/B                     Am          E
E-|------------------------|------------------------|
B-|8--------10-8-----7-----|7-----------------------|
G-|---------------------9--|------9--8--9--------4--|
D-|------------------------|7-----------------7-----|
A-|------------------------|------------7-----------|
E-|7-----------------------|------------------------|

   Am/E                     E7                       
E-|------------------------|------------------------|
B-|---------5--------------|---------3--------------|
G-|5-----------5-----4-----|4-----------4-----4--2tr|
D-|---------------------7--|------------------------|
A-|------------------------|------------------------|
E-|0-----------------------|0-----------------------|

   A                        
E-|------------------0-----|------------------------|
B-|---------------2-----2--|------------------------|
G-|1-----2-----2-----------|2-----------------2--4--|
D-|------------------------|------------------------|
A-|0-----------------------|------------------------|
E-|------------------------|------------------------|

   Am                       Dm                C      
E-|------------------------|------------------------|
B-|---------3--------------|------------------------|
G-|5-----------5-----4--2--|7--------9--7-----9--11-|
D-|2-----------------------|0-----------------------|
A-|0-----------------------|8-----------------------|
E-|------------------------|------------------8-----|

   Em/B                     Am          E
E-|------------------------|------------------------|
B-|8--------10-8--7tr------|7-----------------------|
G-|------------------9-----|------9--8--9--------4--|
D-|------------------------|7-----------------7-----|
A-|------------------------|------------7-----------|
E-|7-----------------------|------------------------|

   Am/E                     E7                       
E-|------------------------|------------------------|
B-|---------5--------------|---------3--------------|
G-|5-----------5-----4-----|4-----------4-----4--2tr|
D-|7--------------------7--|6-----------------------|
A-|------------------------|------------------------|
E-|0-----------------------|0-----------------------|

   A                         
E-|------------------0-----|------------------------|
B-|---------------2-----2--|---------------------10-|
G-|1-----2-----2-----------|2-----------------------|
D-|------------------------|------------------------|
A-|0-----------------------|------------------------|
E-|------------------------|------------------------|


THEME 2A

   E           Am           E                        
E-|---------7--8-----7-----|------7-----------------|
B-|9-----10-------------10-|10-9-----9--------------|
G-|------------------------|------------9--------11-|
D-|------------------------|------------------------|
A-|7-----------0-----------|7-----------------------|
E-|------------------------|------------------------|

   Am                       
E-|0-----------------------|------------------------|
B-|---------3--1--------0--|1-p0--------------------|
G-|------------------------|------2--1--1-----2-----|
D-|------------------------|2-----------------------|
A-|0-----------------------|------3-----0-----------|
E-|------------------------|------------------------|

   Am                       A                        
E-|------------------------|------------------------|
B-|1-p0--------------------|------5--------------10-|
G-|------2--1--1-----2-----|---6-----5--------------|
D-|------------------------|7-----------7-----------|
A-|0-----------------------|0-----------------------|
E-|------------------------|------------------------|

   E           Am           E                        
E-|---------7--8-----7-----|------7-----------------|
B-|9-----10-------------10-|10-9-----9--------------|
G-|------------------------|------------9--------11-|
D-|------------------------|------------------------|
A-|7-----------0-----------|7-----------------------|
E-|------------------------|------------------------|

   Am                       
E-|0-----------------------|------------------------|
B-|---------3--1--------0--|1-p0--------------------|
G-|------------------------|------2--1--1-----2-----|
D-|------------------------|2-----------------------|
A-|0-----------------------|------3-----0-----------|
E-|------------------------|------------------------|

   Am                       A                        
E-|------------------------|---------------------7--|
B-|1-p0--------------------|------5-----------10----|
G-|------2--1--1-----2-----|---6-----6--------------|
D-|------------------------|7-----------7-----------|
A-|0-----------------------|0-----------------------|
E-|------------------------|------------------------|


THEME 1B

   Am                       Dm                C      
E-|8--------10-8-----------|10-------12-10----8-----|
B-|10----------------12-10-|10----------------8-----|
G-|9-----------------------|10----------------9--11-|
D-|------------------------|0-----------------------|
A-|0-----------------------|------------------------|
E-|------------------------|------------------8-----|

   Em/B                     Am          E
E-|7-----------------------|7--------------------7--|
B-|8--------10-8-----7-----|------10-9--10----10----|
G-|9--------------------9--|------------------------|
D-|------------------------|7-----------------------|
A-|------------------------|------------7-----------|
E-|7-----------------------|------------------------|

   Am/E                     E7                       
E-|8--------12--8----------|7--------10-7-----7-----|
B-|10----------------12-10-|9--------------------10-|
G-|9-----------------------|7-----------------------|
D-|------------------------|------------------------|
A-|------------------------|------------------------|
E-|0-----------------------|0-----------------------|

   A                         
E-|------------------5-----|---------------------7--|
B-|9-----10-------5-----5--|------------------10----|
G-|------------6-----------|6-----------------------|
D-|------------------------|------------------------|
A-|0-----------------------|------------------------|
E-|------------------------|------------------------|

   Am                       Dm                C      
E-|8--------10-8-----------|10-------12-10----8-----|
B-|10-------10-10----12-10-|10-------10-10----8-----|
G-|9-----------------9--9--|10----------------9--11-|
D-|------------------------|0-----------------------|
A-|0-----------------------|------------------------|
E-|------------------------|------------------8-----|

   Em/B                     Am          E
E-|7--------7--7-----------|7--------------------7--|
B-|8--------10-8-----7-----|------10-9--10----10----|
G-|9--------------------9--|------------------------|
D-|------------------------|7-----------------------|
A-|------------------------|------------7-----------|
E-|7-----------------------|------------------------|

   Am/E                     E7                       
E-|8--------12--8----------|7--------10-7-----7-----|
B-|10-------10--10---12-10-|9--------9--9-----10-10-|
G-|9-----------------9--9--|7--------------------7--|
D-|------------------------|------------------------|
A-|------------------------|------------------------|
E-|0-----------------------|0-----------------------|

   A                         
E-|------------------5-----|------------------------|
B-|9-----10-------5-----5--|---------------------10-|
G-|7-----------6-----------|6-----------------------|
D-|------------------------|------------------------|
A-|0-----------------------|------------------------|
E-|------------------------|------------------------|


THEME 2B

   E           Am           E                        
E-|---------7--8-----7--5--|------7-----------------|
B-|9-----10-9--5-----5--5--|10-9-----9--------------|
G-|7-----7-----------------|7-----------9-----------|
D-|------------------------|------------------------|
A-|7-----------0-----------|7-----------------------|
E-|------------------------|------------------------|

   Am                       
E-|12-------14-12-------7--|8--7--------------------|
B-|13-------13-13----------|------10-9--9-----10----|
G-|------------------------|------------------------|
D-|------------------------|------------------------|
A-|0-----------------------|7-----------0-----------|
E-|------------------------|------8-----------------|

   Am                       A                        
E-|8--7--------------------|------5-----------------|
B-|10----10-9--9-----10----|---5-----5-----------10-|
G-|------7-----7-----------|6-----------6-----------|
D-|------------------------|------------------------|
A-|0-----------------------|0-----------------------|
E-|------------------------|------------------------|

   E           Am           E                        
E-|---------7--8-----7--5--|------7--------------14-|
B-|9-----10-9--5-----5--5--|10-9-----9--------------|
G-|7-----7-----------------|7-----------9-----------|
D-|------------------------|------------------------|
A-|7-----------0-----------|7-----------------------|
E-|------------------------|------------------------|

   Am                       
E-|12-------10-8--------7--|8--7--------------------|
B-|13----------10----------|------10-9--9-----10----|
G-|------------------------|------------------------|
D-|------------------------|------------------------|
A-|0-----------------------|7-----------0-----------|
E-|------------------------|------8-----------------|

   Am                       A                        
E-|8--7--------------------|------5-----------------|
B-|10----10-9--9-----10----|---5-----5--------2--4--|
G-|------7-----7-----------|6-----------6-----------|
D-|------------------------|------------------------|
A-|0-----------------------|0-----------------------|
E-|------------------------|------------------------|


THEME 1C

   Am                       Dm                C      
E-|------------------------|------------------------|
B-|------------------------|------------------------|
G-|5-----------------4--2--|7--------9--7-----9--11-|
D-|2-----------------------|0-----------------------|
A-|0-----------------------|8-----------------------|
E-|------------------------|------------------8-----|

   Em/B                     Am          E
E-|------------------------|------------------------|
B-|8--------------------8--|7-----------------------|
G-|------------------9-----|---9--7--------7--9-----|
D-|------------9-----------|7--------9--7--------9--|
A-|------------------------|------------7-----------|
E-|7-----------------------|------------------------|

   Am/E                     E                        
E-|------------------------|------------------------|
B-|------------------------|------------------------|
G-|5-----------------------|4-----------------------|
D-|---7--------------------|---6-----------------0--|
A-|------7-----------------|------7-----------------|
E-|0-----------0-----------|0-----------0-----------|

   A                         
E-|------------------------|------------------------|
B-|------------------------|------------------------|
G-|------------2-----------|---------------------4--|
D-|------2-----------2-----|------------------7-----|
A-|4-----------------------|4-----------0-----------|
E-|5-----------------------|------------------------|

   Am                       Dm                C      
E-|------------------------|------------------------|
B-|------------------------|6--5--------------------|
G-|5--7--5--4--------5--7--|------7--5--4-----9--11-|
D-|------------7-----------|0-----------------------|
A-|0-----------------------|------------------------|
E-|------------------------|------------------8-----|

   Em/B                     Am          E
E-|------------------------|------------------------|
B-|8--10-7--8-----------8--|7-----------------------|
G-|------------9-----------|---9--7-----------9--7--|
D-|------------------------|7--------9--7--9--------|
A-|------------------------|------------7-----------|
E-|7-----------------------|------------------------|
 
   Am/E                     E7                       
E-|------------------------|------------------------|
B-|------------------------|------------------------|
G-|5-----------7--5--4tr---|4-----------5--4--2tr1--|
D-|---------------------7--|------------------------|
A-|------------------------|------------------------|
E-|0-----------------------|0-----------------------|
 
   A                         
E-|------------------0-----|------------------------|
B-|---------------2-----2--|---------------------10-|
G-|1-----2-----2-----------|2-----------------------|
D-|------------------------|------------------------|
A-|0-----------------------|------------------------|
E-|------------------------|------------------------|


THEME 2C

   E           Am           E                        
E-|---------7--8-----7-----|------7-----------------|
B-|9-----10-------------10-|10-9-----9--------------|
G-|------------------------|------------9--------11-|
D-|------------------------|------------------------|
A-|7-----------0-----------|7-----------------------|
E-|------------------------|------------------------|

   Am                       
E-|0-----------------------|------------------------|
B-|---------3--1--------0--|1-p0--------------------|
G-|------------------------|------2--1--1-----2-----|
D-|------------------------|2-----------------------|
A-|0-----------------------|------3-----0-----------|
E-|------------------------|------------------------|

   Am                       A                        
E-|------------------------|------------------------|
B-|1-p0--------------------|------5--------------10-|
G-|------2--1--1-----2-----|---6-----5--------------|
D-|------------------------|7-----------7-----------|
A-|0-----------------------|0-----------------------|
E-|------------------------|------------------------|

   E           Am           E                        
E-|---------7--8-----7-----|------7-----------------|
B-|9-----10-------------10-|10-9-----9--------------|
G-|------------------------|------------9--------11-|
D-|------------------------|------------------------|
A-|7-----------0-----------|7-----------------------|
E-|------------------------|------------------------|

   Am                       
E-|0-----------------------|------------------------|
B-|---------3--1--------0--|1-p0--------------------|
G-|------------------------|------2--1--1-----2-----|
D-|------------------------|2-----------------------|
A-|0-----------------------|------3-----0-----------|
E-|------------------------|------------------------|

   Am                       A                        
E-|------------------------|------0-----------------|
B-|1-p0--------------------|---2-----2--------------|
G-|------2--1--1-----2-----|2-----------2-----------|
D-|------------------------|------------------------|
A-|0-----------------------|0-----------------------|
E-|------------------------|------------------------|
         rit.
     
Добавлено: 20.11.2013
Другие материалы по этой песне:
  • Аккорды и текст

Страница создана 20.11.2013
http://primanota.ru/johansson-jan/brudmarsch-efter-larshoga-jonke-chords.htm
Привет, Гость.
Предлагаем пройти революционный курс по гитаре.
Подарок от PrimaNota.Ru, забирай!