PrimaNota.ru - самый крупный в мире бесплатный архив песенных текстов, аккордов, табулатур и нот


Штраус Иоганн (сын) - Blue Danube Waltz - таба, видео

Регистрация Запомнить меня
Войти через:  Facebook Google Twitter Vk Yandex Mail.ru

Штраус Иоганн (сын) - Blue Danube Waltz - таба, видео

Печатать
Просмотров: 216
-------------------------------------------------------------------------------
The Blue Danube Waltz by Johann Strauss
-------------------------------------------------------------------------------
Tabbed by: CoolTom
E-mail: Tomskillage@live.com

Tuning:Standard

e|--------------------5--5---------------------------------------------|
B|--------------------7--7-7--7---------------------------------------------|
G|------------2---2--------7--7-------------------------------------------------|
D|-0--0--4-------------------------------------------------------------|
A|---------------------------------------------------------------------------|
E|---------------------------------------------------------------------------|

e|------------------5--5--3--3----------------------------------------|
B|------------------8--8--2--2------------------------------------------------|
G|------------2--2----------------------------------------------------------|
D|---0--0--4----------------------------------------------------------------|
A|---------------------------------------------------------------------------|
E|---------------------------------------------------------------------------|

e|---------------------7--7 -3-3-------------------------------------|
B|---------------0---0-8--8--2-2-----------------------------------------|
G|---------------------------------------------------------------------------|
D|------------2-----------------------------------------------------------|
A|---4---4----------------------------------------------------------------|
E|---------------------------------------------------------------------------|

e|--------------------7--7---------------------------------------------------|
B|-------------0--0---7--7--7--7--------------------------------------------------|
G|--------------------7--7--7--7----------------------------------------------|
D|----------2----------------------------------------------------------|
A|--4---4--------------------------------------------------------------------|
E|---------------------------------------------------------------------------|

e|-------------------10--10-5--5----------------------------------------------|
B|---------------3---10--10-7--7-----------------------------------------------|
G|-------------2----------------------------------------------------------|
D|--0---0---4------------------------------------------------------------------|
A|------------------------------------------------------------------------|
E|---------------------------------------------------------------------------|

e|-------------------10-10-0-0----------------------------------------------|
B|-----------------3-12-12-12-12-----------------------------------------------|
G|--------------2-----------------------------------------------------------|
D|---0---0---4---------------------------------------------------------------|
A|---------------------------------------------------------------------------|
E|---------------------------------------------------------------------------|

e|-0---0---3---7----7---4--5--14------------------------------------------------|
B|-------------0----0----------------------------------------------------------|
G|----------0-----------1--2--14---------------------------------------------|
D|-2---2--------------------------------------------------------------------|
A|---------------------------------------------------------------------------|
E|---------------------------------------------------------------------------|

e|--10-----2-0-7---5--------------------------------------------------------|
B|------7--0------------3--3--3-------------------------------------------|
G|--10---------6--------2--2--2------------------------------------------|
D|----------------------4--4--4-------------------------------------------|
A|---------------------------------------------------------------------------|
E|---------------------------------------------------------------------------|


************************************

| /   slide up
| \   slide down
| h   hammer-on
| p   pull-off
| ~   vibrato
| +   harmonic
| x   Mute note
| b   Bend
| pb  Pre-bend
| br  Bend release
| pbr Pre-bend release
| brb Bend release bend

************************************
Добавлено: 12.10.2015
Другие материалы по этой песне:
  • Аккорды и текст

Страница создана 12.10.2015
http://primanota.ru/johann-strauss-sohn/blue-danube-waltz-chords.htm
Привет, Гость.
Предлагаем пройти революционный курс по гитаре.
Подарок от PrimaNota.Ru, забирай!