PrimaNota.ru - самый крупный в мире бесплатный архив песенных текстов, аккордов, табулатур и нот


Бах Иоганн Себастьян - Воздух. Сюита для оркестра №3 в D - аккорды и текст, видео

Регистрация Запомнить меня
Войти через:  Facebook Google Twitter Vk Yandex Mail.ru

Бах Иоганн Себастьян - Воздух. Сюита для оркестра №3 в D - аккорды и текст, видео

Печатать
Просмотров: 268
Воздух. Сюита для оркестра №3 в D
Бах Иоганн Себастьян
  E||---0-----0-----0-----0-----|--0--5-----------------------|
  B||---1-----1-----1-----1-----|--1----6-3---0-1-0-----------|
4 G||--0-----0-----2-----2-----|--2--------5-----0----2-0----|
/ D||--------------------------|-----3---4---0---0------0----|
4 A||---3--3--2--2--0--0--------|---------5-------------------|
  E||---------------------3--3--|--1----------2---3--3---1--1-|
 
E|-3-------3----0---------3-1-|-1--------0-1---------------1-0-|
B|--------------------3-2-----|----3-1-3-----3---3-----1-0-----|
G|---3-2-3---3-2--3-2---------|-2--2---2-------0---2-0---------|
D|---2---0-0---2--------------|-0--0-----------0---------------|
A|-------------4--4---0---0---|--------3---3---2---2-----------|
E|-0--------------------------|------------------------3---3---|

                               _________________________________
                              | 1
E|-0-----2-3-------0---------|---------------------------------|
B|-1-----3---1---3-----3---1-|-0----0-1--0---------------------|
G|-0-----0---0-5---0-2---2---|-0-2-2-------2-0---------------@-|
D|-----------2-4---------0---|-0---2---0-0---0-------0-3-2-0-@-|
A|-3-3-2-2---0-0-------------|-----3---0-----2-0-2-3-----------|
E|-------------------2-------|-3---------2---3-----------------|

  _________________________
 | 2
E|---------------------------||
B|-0-----0-1----0------------||
G|-0-2-2----------2-0--------||
D|-0---2-----0--0---0--------||
A|-----3-----0------2--------||
E|-3------------2---3--------||

E|---------------------3-------0-------|
B|---0-----0-1-0---0-------2-3---------|
G|--0-----0-----2---0---2-3-----2-3---|
D|--0-----0---------------2---0---5-3-|
A|---------------------------------5---|
E|---3--3--1-----1-----0---------------|

E|-----5-----3-1-0-1-------0---------|
B|-------------2---3---------3-1-0---|
G|-2---0-------2---2-----2---------2-|
D|-2-3-------------0--0--------------|
A|-4-----7-4---0---------3-------3---|
E|---------0-------------------------|

E|--------------------0-1-------0-|
B|------0-----1-3-------0-------0-|
G|--1-2---------------5---2-1-2---|
D|------0-2-3-2-3-0-2---0---------|
A|--2-3-2---0-----0-------3-2-3---|
E|------------------4-----------4-|

E|------------------------------|---------0-----5----------3-2-|
B|-3-1-0---0-1-3-1-0------------|-1-----1---3-1-7--------------|
G|-2-----2-2-----1---2-----2----|-2-----0---0------------0-----|
D|-2---0---0-----0---2-----2----|-0-----2-4-2---0--0-2-4-------|
A|-0-----3-----------0--0-------|-0--------------------3---3---|
E|-----1---------0---------3--3-|-2--2--0---0------------------|

E|-0---3----------------------------|
B|---3-----------0-1-0--------------|
G|-0-----0--2--2-----0----2-0-------|
D|----------2--0-----0------0---0---|
A|-2-----2--3---------------2-3---2-|
E|-------------2-----3--3---1---1---|

E|-------------0--------------1-0-|
B|--1--------0-1-3-3--0---0-1-0---|
G|--0--2-3-2---2---2----2-----0---|
D|----------------------------0---|
A|-----3--------------------------|
E|--0--0---1---1---2--2---3---3---|

E|------------3-1-1---------------|
B|-5--2-0-2-3-5---3-2-3-----------|
G|-4----------6---2-----2---2-----|
D|----2-----------0-----------3---|
A|--------0---0-----------3-----3-|
E|-4--4---------------------------|

E|----------------1-1---0---0----1-3-|
B|------------0-3-----3-0-1-1--------|
G|--0-----0-0---0---0-------0--------|
D|--0---3---2---0--------------------|
A|--2-2-2-------2---3---3---1--1-----|
E|----------3------------------------|

E|---------0-3-6-5---------|-----1-----------------0-1-1-0-----|
B|-1-----1---------------1-|-0-3-3-----------3-1-3-----------3-|
G|-0-----0-----------------|-----2---2-0-2---0---4-----0---2---|
D|-2--0--2-----------------|-0---0-3-3---3-2-0---5---------3---|
A|-0--0----------3---------|---------3---3---2---------3-------|
E|-------3---3---1--1--0-0-|---------------------3---------1---|

E|-------------------------------------|
B|-1-0-----0----0-1-0-1-0-1-1----------|
G|-0---2-----5--------------0--------@-|
D|-2---------3--0-----------2--------@-|
A|--------------------------3----------|
E|-3-----1---3--3----------------------|
Добавлено: 10.10.2013
http://primanota.ru/johann-sebastian-bach/vozdux-syuita-dlya-orkestra-n3-v-d-chords.htm
Привет, Гость.
Предлагаем пройти революционный курс по гитаре.
Подарок от PrimaNota.Ru, забирай!