PrimaNota.ru - самый крупный в мире бесплатный архив песенных текстов, аккордов, табулатур и нот


Бах Иоганн Себастьян - Violin Sonata No 3 Bwv 1005 Largo - таба, видео

Регистрация Запомнить меня
Войти через:  Facebook Google Twitter Vk Yandex Mail.ru

Бах Иоганн Себастьян - Violin Sonata No 3 Bwv 1005 Largo - таба, видео

Печатать
Просмотров: 237
Уроки эстрадного вокала в Санкт-Петербурге
bach Largo from violin sonata No3


|-------1-3-0-1------------------|-------------------------------------|
|-----1-----------3---1----------|---------------3------------------1--|
|-2-3-----------2---3------3-2-0-|---------0-2-3---3h5p3-2-2----2-3----|
|-3---------------2--------------|-3-2-0-3---------2-------------------|
|--------------------------------|-5---------------3-------------------|
|--------------------------------|-------------------------------------|
  
|---------3-5-6-3-1-0-----1-------|-------------------------------------|
|-3-----3-------------3-1---------|-------3-----1--------------3---3----|
|---2-3-----------3---------------|-0---------0---3-3tr2-0--------------|
|-3-------------------------3-2-3-|---2-3---2-------3------3-----2-3-0--|
|-1---------------------------0---|-1-------3---------------------------|
|---------------------------------|-------------------------------------|
  
|----------1---1---1---0------5-----|-----3--------0-0-----------0-1-|
|-3---1----------------1--------3---|-0--------1-3-----1-0-----3-----|
|-----2------0-2---0--------------5-|---0------------------2---------|
|-2--------------3----------3-------|-3------2-------3-------3-------|
|---0----------------3--------------|--------------------------------|
|-----------------------------------|--------------------------------|
  
|-1-------5-------------5---------|------------------------------------|
|-0-3-1-0---6-8-0-1-------1tr0--1-|-1-----1-3-0-1----------------------|
|-0---------------------5-0-------|-----0---------2------------------2-|
|---------------3-2-0---3---------|-2-3-------------3h5p3-2-3----0-3---|
|---------------------3-----------|-3---------------3------------------|
|---------------------------------|------------------------------------|
  
|---1--------------------------------|-----------------------------------6-|
|-3---3-0----------------------------|---------------------------3-4-3-4---|
|---------0------------------3---3---|-3-0-2---5p3-5---5---5-2-3-----------|
|-----------3-2-3-3tr2-0-------0-2---|-3-------------2-4-0-5---------------|
|---------2-------3------3---------3-|-------------------------------------|
|------------------------------------|-------------------------------------|
 
|-5-3-5---------4-3-2-3-----------|
|-4-------3---3---3-----0-1-0-1-4-|
|-------5---5---------------------|
|-3---------------1---------------|
|---------------------------------|
|---------------------------------|
  
|-------------------------------6--5-3tr5-2-3--|
|----------------4-3---------3-----------------|
|-----2--5-----------5-3--5--------5-----------|
|-4------------4-------5-----------0-----------|
|-0--------------------------------------------|
|----------------------------------------------|

|-3---6-5-6------5-3-------------------0--3-1-3--5-|
|--------------------6-5-3-1--0--1--3--------------|
|-3------------------------------------------------|
|-------------3------------2-----------------------|
|-5------------------------------------------------|
|-3------------------------------------------------|
  
|-6--3--5------3-1-0-----------------3--0--1------|
|--------------------3-1----------3---------------|
|-5----------------------3--2--3--------------3---|
|-3---------2------------3------------------------|
|-------------------------------------------------|
|-------------------------------------------------|
 
|-------------3--0--1-------------1--5--3-1-0--1--|
|----------1----------------0--3------------------|
|-2--0--2-------------2--0------------------------|
|-------------------------------------------------|
|-3----------------------2------------------------|
|-------------------------------------------------|
  
|-0--1-0-------------------------------|-----------------------------------|
|-1------3--1--------------------------|---------3---1---------3-----------|
|-0----------------0-2-2---------0-2-3-|-3-0-------3-----------------------|
|----------------3-----0-3-2-0---------|-2---3-2-------2-3-----3-3-2tr3--3-|
|-1------------0-------1-------1-------|-3-------------1-0---0-1-3---------|
|--------------------------------------|-------------------3---------------|
 
|----------------------------------------3-----------|
|----------1-----------1--------------3-----3--0-----|
|----0--2----------------------0-2-3-----------------|
|-3-----------1--0--1------0-3--------------------3--|
|----------------------------------------------------|
|----------------------------------------------------|

|-------------------------------5-6-5-6-10-8-------0--1-0-----|
|-------------5-6-8-5-----5-6-8---------------------------3-1-|
|-------4-5-7---------5-7-----------------------3-------------|
|---5-7-------------------------------------------------------|
|-7-----------------------------------------------------------|
|-------------------------------------------------------------|

|-1--0--------------------1--4-3-4-----4-3-1-0-1-|
|------3-1---3------------3---------0------------|
|-2-------------2--0---0--1----------------------|
|------------3-------3---------------------------|
|---------------3---------2----------------------|
|------------------------------------------------|

|---0---6-5------------------1---*|
|-1---6-----8-5-6--5tr6--6-------*|
|-2----------------3---------2---*|
|------------------5---------3---*|
|-3----------------3-------------*|
|--------------------------------*|
Добавлено: 14.06.2012
Другие материалы по этой песне:

Страница создана 14.06.2012
http://primanota.ru/johann-sebastian-bach/violin-sonata-no-3-bwv-1005-largo-chords.htm
Привет, Гость.
Предлагаем пройти революционный курс по гитаре.
Подарок от PrimaNota.Ru, забирай!