PrimaNota.ru - самый крупный в мире бесплатный архив песенных текстов, аккордов, табулатур и нот


Бах Иоганн Себастьян - Toccata Fugue In D Minor - таба, видео

Регистрация Запомнить меня
Войти через:  Facebook Google Twitter Vk Yandex Mail.ru

Бах Иоганн Себастьян - Toccata Fugue In D Minor - таба, видео

Печатать
Просмотров: 323
Johann Sebastian Bach - Toccata & Fugue in D Minor

Variations of this:
E|-5-3-5---3-1-0-------------------------|-----------|--------|
B|--------------3-2--3-------------------|-----------|-3---3--|
G|-----------------------2-0-2-----------|-------5h9-|-2---2--|
D|-------------------------------2-3---0-|----5h8----|-5-2-4--|
A|-----------------------------------4---|-4h7-------|--------|
E|---------------------------------------|0----------|--------|

E|---------------------------------------------------------------------------------|
B|---------------------------------------------------------------------------------|
G|---------------------------------------------------------------------------------|
D|---------------------------------------------------------------------------------|
A|-4h5h7-4h5h7-4h5h7-4h5/7h8h10-7h8h10-7h8h10-7h8/10h12h13-10h12h13-10h12h13-10-12-|
E|---------------------------------------------------------------------------------|

E|-------------------------------------------------------------------------------------|
B|-------------------------------------------------------------------------------------|
G|-6h7h9-6h7h9-6h7h9-6h7/9h10h12-9h10h12-9h10h12-9h10/12h14h15-12h14h15-12h14h15-12h14-|
D|-------------------------------------------------------------------------------------|
A|-------------------------------------------------------------------------------------|
E|-------------------------------------------------------------------------------------|

E|------------------------------------------------------------------------------------|
B|------------------------------------------------------------------------------------|
G|-14-12-15---12-15------14------14------12----12-------------------------------------|
D|----------14------14-15---12-15---12-14----14----12-15--12-15-----14-----14-----12--|
A|-----------------------------------------16----16-----14-----14-15--12-15--12-14----|
E|------------------------------------------------------------------------------------|

E|-------------------------------------------------------------------|
B|-----------------------------------------------------------------3-|
G|-----------------------------------------------------------------2-|
D|-----12----------------------------------------------------------0-|
A|---14----12-15--12-15-----13-----13-----12-----12-----10----10---0-|
E|-15----15-----13-----13-15--12-15--12-13--10-13--10-12--9-12--9----|

							      trill 4x
E|------------------------------------------------------------- || ----1--|
B|------------------------------------------------------------- \/ ----3--|
G|---------------12h15---15-14-12--------------------------------------2--|
D|----------11h14----------------15-14-12--------------14-17-15h17--14-0--|
A|-----10h13-----------------------------16-14-16-12-16-------------------|
E|-9h12-------------------------------------------------------------------|
  (Hold 2's with 1st finger)(quickly switch 2's to second finger while open G)
E|--------------3-----3-5---3-5-6-3-5---3---------------- || -----------------------|
B|--3-5-6-3-5-6---5-6-----6-----------6---5-6-3-5-2-3---- \/ -----------------------|
G|-2-2-2-2-2-2-2-2-2-2-2-2-2-2-2-2-2-2-2-2-2-2-2-2-2-222320222-2-2-2-2-2-2-2-2-2-2--|
D|------------------------------------------------------------3-5-2-3-0-5-2-3-0-2---|
A|--------------------------------------------------------------------------------4-|
E|----------------------------------------------------------------------------------|

E|--------------------------------------|
B|------------------------------------3-|
G|-2-2-2-2-2-2-2-2-2-2-2-2-2-2-2-2-2--2-|
D|--0-----------------0-------0-----0-0-|
A|----0-1---0---------------------4---0-|
E|--------3---1-3-0-1---3-0-1---1-------|

Strum like harp
E|-6-5-3-5-----6---5---3--5-----6---5---3----5-----6---5---3--5---|
B|-6-5-3-5-----6---5---3--5----6-6-5-5-3-3--5------6---5---3--5---|
G|-7-5-3-6---7------------6---7---5---3----6-----7------------6---|
D|---------------7---8----7---------------7----------7---8----7---|
A|-----------5-----------------------------------5------------0---|
E|---------------8---6------/\-----------------------8---6----0---|
                            ||
Put these two measures in between these
E|---||------------------------------------------------------------------|
B|---\/----------------------------------------------------------14-15---|
G|-14-12---------------------------------12-14-12--------------14--------|
D|------15-14-12-----------------12-14-15--------15-14-15-12-15----------|
A|--------------16-14-16-12-14-16----------------------------------------|
E|----/\-----------------------------------------------------------------|
      || 
E|----\/-----12-13-15-17--18~~~~--|
B|---12-14-15---------------------|
G|-14-----------------------------|
D|--------------------------------|
A|--------------------------------|
E|--------------------------------|

This section is incomplete
Continuing with main theme

E|-5-5-5-5-5-5-5-5-5-5-5-5-5-5-5-5-5-5--|
B|--8-6-----------------------------6-8-|
G|------9-7-6-7-9-----6-7-6-7-9-7-9-----|
D|----------------7-9-------------------|
A|--------------------------------------|
E|--------------------------------------|

E|-10--10--10--10--10--10--10--10--10--10--10--10--10--10--10---|
B|---13--11-----------------------------------------------------|
G|-----------14--12--11--12--14------11--12--11--12--14--12--14-|
D|-------------------------------12-----------------------------|
A|--------------------------------------------------------------|
E|--------------------------------------------------------------|

(HALF-ASSED VERSION)
E|----10----10-11----11----8----8----10----10----6---6---9---9---|
B|-11----11------------------10---10---------------8---8---------|
G|----------------12----12--------------10----10-----------9---9-|
D|---------------------------------------------------------------|
A|---------------------------------------------------------------|
E|---------------------------------------------------------------|

E|-5---5----------------------------|
B|---6---6-8---8---6---6---5---5----|
G|-----------6---6---7---7---3---3--|
D|----------------------------------|
A|----------------------------------|
E|----------------------------------|

(WHOLE-ASSED VERSION)
   Gm          Cm         F        A#        A#tri   A
E|----10----10-11---11----8---8----10---10---6---6---9---9-------|
B|-11----11-------8---8-----10--10----6----6---8---8---5---5-----|
G|-0----------------8---------10--------7--------9-------6-------|
D|-------12----10---------10-------8---------8-------7-----------|
A|---------------------------------------------------------------|
E|---------------------------------------------------------------|
   Dm      Etri    Dm     Etri
E|-5---5----------------------------|
B|---6---6-8---8---6---6---5---5----|
G|-----7-----6---6---7---7---3-0-3--|
D|-------------8-------7---2--------|
A|-8-------7-------5----------------|

Section Incomplete
Continuing with later Ditty
                                                                       Repeat 2x
E|-17------------------17--------------------15-12--12--12--12-15-12--12--12--12-|
B|---18-17-18--18-17-18--18-17-18---18-17-18------15--13--15--------15--13--15---|
G|-----------17-------------------17---------------------------------------------|
D|-------------------------------------------------------------------------------|
A|-------------------------------------------------------------------------------|
E|-------------------------------------------------------------------------------|
					2x
E|-13-15-13-12------------|-------14-17-14-----|-------12-15-12------------12-15-12-----|
B|------------15-13-12--12|--12-15--------15-12|-----13--------13--------13---------13--|
G|--------------------14--|12------------------|12-15------------15-12-15-------------14|
D|------------------------|--------------------|----------------------------------------|
A|------------------------|--------------------|----------------------------------------|
E|------------------------|--------------------|----------------------------------------|
		2x			2x
E|----------13-------|---------12--------|
B|-----13-15--15-13--|-------14--14------|
G|---14------------14|--12-15------15-12-|
D|-15----------------|14-----------------|
A|-------------------|-------------------|
E|-------------------|-------------------|

That's all I know for now.
Thanks fer viewing
Добавлено: 17.03.2012
Другие материалы по этой песне:

Страница создана 15.03.2012
http://primanota.ru/johann-sebastian-bach/toccata-fugue-in-d-minor-chords.htm
Привет, Гость.
Предлагаем пройти революционный курс по гитаре.
Подарок от PrimaNota.Ru, забирай!