PrimaNota.ru - самый крупный в мире бесплатный архив песенных текстов, аккордов, табулатур и нот


Бах Иоганн Себастьян - Toccata Fugue - таба, видео

Регистрация Запомнить меня
Войти через:  Facebook Google Twitter Vk Yandex Mail.ru

Бах Иоганн Себастьян - Toccata Fugue - таба, видео

Печатать
Просмотров: 142
From: meyerl@NeXTwork.Rose-Hulman.Edu (Luke Meyer)
Newsgroups: rec.music.makers.guitar.tablature
Subject: TAB: Toccata and Fugue (some of it anyway)

Ok, first a bunch of disclaimers.
I haven't actually listened to this played for quite a while, so
This whole thing was written from memory about half a year ago.  Luckily,
This is quite a memorable tune, so I think that it's a fair imitation of
The original.  Whether or not, it still sounds pretty cool.
Other stuff: I'm no music major, and so I have no idea what key
This is really in (Am?).  Also, I don't have a very good grasp of timing,
So don't take my measure marks too seriously.


This is one of my absolute favorite pieces in guitar, especially
Since I arranged it myself :) .  One interesting thing to note is the use
Of pedalling - this is where the high E string is played every other note.
This adds a cool twist to an otherwise simple melody, and yet adds very
Little difficulty to the playing.  I suggest you use it everywhere.
A playing note: if your guitar (an acoustic, preferably) is any
Good, try not to mute (and, of course, not to hit) any of the strings that
You are not playing on.  You get this really cool reverb effect,
Especially in the intro. (Well, it works on my guitar at least.)  I also
Suggest you fingerpick this song; it's really hard to get that pick back
And forth between the 1st and 4th strings.

Now then, here it is.

~~~ = vibrato
^   = hammer-on or pull-off
/ or \ = slide

|-12^10^12~~~---10^8^7-----------------|---------------------------------|
|----------------------10^9~~~-10~~~---|--5^3^5~~~----0-1----------------|
|--------------------------------------|------------------1-2~~~---------|
|--------------------------------------|---------------------------------|
|--------------------------------------|---------------------------------|
|--------------------------------------|---------------------------------|


|--------------------------------------|-------------------------10-13~~~|
|--------------------------------------|--------------------9-12---------|
|--------------------------------------|---------------7-10--------------|
|--------------------------------------|-----------6-9-------------------|
Добавлено: 01.03.2012
Другие материалы по этой песне:
  • Аккорды и текст

Страница создана 01.03.2012
http://primanota.ru/johann-sebastian-bach/toccata-fugue-chords.htm
Привет, Гость.
Предлагаем пройти революционный курс по гитаре.
Подарок от PrimaNota.Ru, забирай!