PrimaNota.ru - самый крупный в мире бесплатный архив песенных текстов, аккордов, табулатур и нот


Бах Иоганн Себастьян - Toccata And Fugue In D Minor - таба, видео

Регистрация Запомнить меня
Войти через:  Facebook Google Twitter Vk Yandex Mail.ru

Бах Иоганн Себастьян - Toccata And Fugue In D Minor - таба, видео

Печатать
Просмотров: 771
This is just a couple variations to Bach's organ piece Toccata and Fugue.

Tuning: Drop D

Heres Intro 1A:


|--17-15-17-----15-13-12----------|------------------------------|
|------------------------15-14-15-|---10-8-10-----5-6------------|
|---------------------------------|--------------------6-7-------|
|---------------------------------|------------------------------|
|---------------------------------|------------------------------|
|---------------------------------|------------------------------|


Intro 2A:
|--------------------------------|
|--------------------------------|
|--2-0-2-------------------------|
|-----------5-3-2----------------|
|-----------------5-4-5----------|
|--------------------------------|


Well, pretty much you just put the two together
Orrrr if you wanna stay simple..


Intro 3A:
|----------------------------------|-------------------------|
|----------------------------------|-------------------------|
|----------------------------------|-------------------------|
|--7-5-7---------------------------|-7-5-7-------------------|
|----------8-7-5-4-5---(5)---------|---------7-5-4-5----(5)--|
|----------------------------------|-------------------------|

Intro 1B:
|-----------------3--------------|--------10-------10---------|
|--------------5-----------------|--------8--------7----------|
|-----------3--------------------|--------7--------7----------|
|--------5-----------------------|--------0--------0----------|
|-4--(4)-------------------------|--------0--------0----------|
|--------------------------------|--------0--------0----------|


Alternative...


Intro 2B:
|-----------------3--------------|--x--------------------------|
|--------------5-----------------|--3--------------------------|
|-----------3--------------------|--2-------11--(11)-----------|
|--------5-----------------------|--5-------0------------------|
|-4--(4)-------------------------|--0-------0------------------|
|--------------------------------|----------0------------------|

And that is the Introoo. Enjoy :)


x - mute
() - hold out note
Добавлено: 13.06.2012
Другие материалы по этой песне:

Страница создана 02.03.2012
http://primanota.ru/johann-sebastian-bach/toccata-and-fugue-in-d-minor-chords.htm
Привет, Гость.
Предлагаем пройти революционный курс по гитаре.
Подарок от PrimaNota.Ru, забирай!