PrimaNota.ru - самый крупный в мире бесплатный архив песенных текстов, аккордов, табулатур и нот


Бах Иоганн Себастьян - Tocata & Fugue - таба, видео

Регистрация Запомнить меня
Войти через:  Facebook Google Twitter Vk Yandex Mail.ru

Бах Иоганн Себастьян - Tocata & Fugue - таба, видео

Печатать
Просмотров: 127
     ________________________________________
     I                                      I
     I    La Tocata & fugue de JS BACH      I
     I   transcrit et "jou?" par Fred M.    I
     I   Jonathan.darkside@worldonline.fr   I 
     I______________________________________I


C'est juste une petite partie -celle que je prefers et qui est techniquement tres dure-
Bon ok, la fin je la maitrise a encore :)

It's just a little part -the one i prefers and that is technicaly very hard-
Ok ok, I 'm not able to play the end yet :)




e:-10------10------11------11------8-------8-------10------10-------
b:-----11------11-------8-------8------10------10-------6-------6---
g:---12--12--12--12---8---8---8---8--10--10--10--10---7---7---7---7-
d:-12------12------10--------------10------10-------8---------------
a:------------------------------------------------------------------
e:------------------------------------------------------------------

e:-6-------6-------9-------9-------5-------5-------3-------3--------
b:-----8-------8-------5-------5-------6-------6-------5-------5----
g:---9---9---9---9---6---6---6---6---7---7---7---7---6---6---6---6--
d:-8-------8-------7---------------7-------7-------5-------5--------
a:------------------------------------------------------------------
e:------------------------------------------------------------------

e:-1-------1-------0-------0-----
b:-----3-------3-------2-------2-
g:---2---2---2---2---0---0---0---
d:-3---3---3---3---2---2---2---2-
a:-------------------------------
e:-------------------------------


e:-5---5---5---5---5---5---5---5---5---5---5---5---5---5---5---5---5
b:---8---6---5---------------5---6---------------------------5---6--
g:---6---7-------7---6---7-----------6---7---6---7---6---7-------7--
d:-----------5-----------------------7---9-------------------5---7--
a:---------------8---7---8---4---5-----------7---8---7---8----------
e:------------------------------------------------------------------



e:---5---5---5---5---5---5---5---5---3---3---3---3---3---3---3---3-
b:-6---5---3-----------------------5---3---------------------------
g:-------------5---4---5---7---4-----------5---4---2---4---5---2---
d:-0-------3-------5-------5---------------2-------3-------3-------
a:---------------------------------3-------------------------------
e:-----------------------------------------------------------------


e:---1---1---1---1---1---1---1---1---0---0---0---0---0---0---0---0-
b:-3---1---------------------------2-------------------------------
g:---------3---2---0---2---3---0-------3---2---0-------0---2---3---
d:---------0-------2-------2-----------------------3---------------
a:-1-------------------------------0-------4-------5-------5-------
e:-----------------------------------------------------------------

Добавлено: 02.08.2013
http://primanota.ru/johann-sebastian-bach/tocata-and-fugue-chords.htm
Привет, Гость.
Предлагаем пройти революционный курс по гитаре.
Подарок от PrimaNota.Ru, забирай!