PrimaNota.ru - самый крупный в мире бесплатный архив песенных текстов, аккордов, табулатур и нот


Бах Иоганн Себастьян - Тетрадь Анны Магдалены Марш в G - аккорды и текст, видео

Регистрация Запомнить меня
Войти через:  Facebook Google Twitter Vk Yandex Mail.ru

Бах Иоганн Себастьян - Тетрадь Анны Магдалены Марш в G - аккорды и текст, видео

Печатать
Просмотров: 127
Тетрадь Анны Магдалены Марш в G
Бах Иоганн Себастьян
E||------------------2--3-----|--------------------------|
B||---3--------------------5--|--3--------------3--5--1--|
G||-----------------2--4--5--|--4--------------4--5--2--|
D||-----5--5--5--5-----------|-----5--5--5--5-----------|
A||---------------------------|--------------------------|
E||------3--3--3--3-----------|-----3--3--3--3-----------|

E|--------------3-----3---5h7-|--5\-3--2--0------------|
B|--0-----0--3-----3----------|--------------3---------|
G|-----0--------------0-------|-------------------5----|
D|----------------------------|--0-----2-----4---------|
A|--------------2-------------|-------------------5----|
E|--3-----3-------------------|------------------------|

E|-----------3--3--------3-|--3--------3--3--------3--|
B|--0----------------------|-----1--1-----------------|
G|-----0--0--------0--0----|-----------------2--2-----|
D|-------------------------|--------------------------|
A|-------------------------|--------0-----------4-----|
E|--3-----3-----------2----|--0-----------------------|

E|--2----0---------------|--------------------------|
B|----------3--2-------3-|--3-----------------------|
G|-------------2---------|-----2--2--------2--2-----|
D|--0----4---------------|--0--------4--4--------4--|
A|------------------0----|--------------------------|
E|-----------------------|--------------------------|

E|--------------------||---------------------------|
B|--------------------||---------------------------|
G|-------------------||--7-----------7-----------|
D|--0----------------||-----7--7--7-----4--4--4--|
A|--------------------||---5-----5-----5-----5-----|
E|--------------------||---------------------------|

E|--------------------------|--------------------------|
B|--------------------------|-----------0--1--0--1/-3--|
G|--7--------------------0--|--2--0--2-----------------|
D|-----0--0--0--0--2--4-----|--------0-----------2/-4--|
A|--5-----------------------|--------------------------|
E|--------------------0-----|--2-----------------------|

E|--------------------0--2--|--3-----------3-----------|
B|--1--0-----0-----3--------|-----3--3--3-----0--0--0--|
G|--0-----2-----0-----------|--------------------------|
D|--------0-----------0-----|--------------------------|
A|--------------------------|--------------------------|
E|--------------3-----------|--3-----3-----3-----3-----|

E|--3-----------------------|-----------0--1--0--1--3--|
B|--------------------0--1--|--3--1--3-----------------|
G|-----0--0--0--0--2--------|--------------------------|
D|--------------------------|--------------------------|
A|--------------------0-----|--2-----------------0--2--|
E|--3--3--3--3--3-----------|--------3-----------------|

E|--1--0-----0--------------|--0--------------2--2--3--|
B|--------3-----1--0--1--3--|-----1--1-----------------|
G|--------0-----------0-----|-----------2--2-----------|
D|--------------------------|--------------------------|
A|--3-----------3-----------|--3-----------------3-----|
E|--------------------------|--------------------------|

E|---------------2-2-3-|--------------|------------------------|
B|-3--0--0-------------|-1--0---------|------------------------|
G|----------0--0-------|------2-2-0-0-|-0----------------------|
D|---------------------|--------0-----|----0--0--------0--0----|
A|-2---------------2---|-0------------|----------2--2--------2-|
E|---------------------|----3---------|-3----------------------|

E|--------------------||
B|--------------------||
G|--0----------------||
D|--0----------------||
A|--2-----------------||
E|--3-----------------||
Добавлено: 14.10.2013
http://primanota.ru/johann-sebastian-bach/tetrad-anny-magdaleny-marsh-v-g-chords.htm
Привет, Гость.
Предлагаем пройти революционный курс по гитаре.
Подарок от PrimaNota.Ru, забирай!