PrimaNota.ru - самый крупный в мире бесплатный архив песенных текстов, аккордов, табулатур и нот


Бах Иоганн Себастьян - Siciliano - таба, видео

Регистрация Запомнить меня
Войти через:  Facebook Google Twitter Vk Yandex Mail.ru

Бах Иоганн Себастьян - Siciliano - таба, видео

Печатать
Просмотров: 159
Slowly

1                                                  
|--------------3-3-2-0-0-----|----0-------------------------|
|--------------0-0-------3---|--3---------0---0-3-1-0-------|
|------------------2-0-0-----|--2-0---5-2-0---0-----0-2-----|
|----0-----------0-------4---|--------4-----0---------4-----|
|--2---3-2-0---------------3-|2-----0---------------------0-|
|3-----------3---------------|------------3-------------2---|

3
|----------------------------------0-|----------------------------------3-|
|------------3---1-0-1-----------1---|3-1-0-----0---0-1-----------------0-|
|--2-0-2---2-1-----------------2-----|0-----2-0---2-----2-0---------------|
|0-4-2-4---4-----2-0-2-----0-4-------|----------0-------0-----0-----------|
|--------3---2-0---------0-----------|2-----3-----3-------2-2---3-2-0-----|
|--------------------3-2-------------|--------------------3-----------3---|

5
|3-2-------------2-2-0-------3-2-|
|0---------------------------0---|
|--2-0-----------2-2-0---------2-|
|0-----4-2-1-----------2-0-------|
|------------3-2---2-------3-----|
|------------------0-------------|

6
|----2-0---0-3-2---2-3-3-5-5-3-2-0---------------|
|--4-------------------0----------4-2------------|
|--2---0---0---2---2-------5---------4-2-0---0-2-|
|------------------------------------------4-----|
|2-------2-------2-------------------------------|
|------------------------------------------------|

7
|--7---5---3-2---0-------------------2|
|----7---------4---0-1----------------|
|----------------------2-------------2|
|--------2-----------2-----2-0--------|
|6-------------------0---3-----3-2-0--|
|-------------------------------------|

8
|--0----------------------------------------------|
|4---0-1-0-------------------------0-1-0----------|
|2-0---------2-0----------------0-2-2------2-0----|
|------1---2---2-4-2-1-----1-2-4--------------4-2-|
|2-------------0---2----2-4--------------0-2------|
|----------------------3--------------------------|

9
|----------------------------------|----------------5-5-3-------------3-|
|----------------------------------|--------------------0-------------2-|
|--------------0-0---------------1-|1-2-------------5-5-----------------|
|2-------------2-2-4-------------0-|0-------0---------2-----2-0---------|
|----2-0---------2-6-3-2-0---------|--3-0-2---3-2-0-------2-----4-2-0---|
|0-3-----3-2-0-------------3-2-0---|------------------------------------|

11
|3-2-------------1-1-0-------------0-|----0-----------------------------------|
|2-3---3-1-0-----0-0-1---------------|3-----0-1-----3-1-0-1-0-------------0---|
|------------2-0-------------------2-|2-----0-0---2-----------2-0-0---2-0---2-|
|----0-----------------------------4-|----------0---4-0---2-------0-4---------|
|------------------------3-2-0-------|2-------0---------------3---------------|
|----------------------3-------3-2---|--0-------------3-----------------------|

13
|--0-5-3-2-0-----------3-------1-|
|1-----------3-1-1-0-3---3-0---0-|
|----------------------------0---|
|2-------------0-0-------------0-|
|0-------------------------------|
|--------------2-3-------------3-|

14
|0----------------------------------------0-----|
|--0---------3-----------1-----------0---0--3-1-|
|----0-2-------2---0-------0--------------------|
|--------4-0-----4---2-------2-4-0--------------|
|3---------------------0---------------3--------|
|----------------------------------3------------|

15
|--------------------0------------|------------------------0---------|
|0-----------------3---3-3-1-0----|1-3-1-1-0-----------------3-1---0-|
|--2---2-0-------2-2-----1-----2-1|----------2-0-----------0-0---2---|
|0---4-----4-2-0------------------|2-----0-------4-2-0-------------0-|
|----------------3-2-----2--------|0-------------------3-2-3-2-3-----|
|------------------------0--------|------2---------3---0-------------|

17
|------------0-------------0---------|--------5-3-2-0-----------------------|
|----1---0-----1-3-2-3-2-2---3-2-0---|3-0-1-----------3-1-0-5-3-------0-----|
|2-0-------------0-0-----3---------2-|2---------------------------------0-2-|
|--------0-------0-2-----2-----------|0-----0---------------4-2-----0-------|
|3---------3-----2-0-----------------|----------------------3-2-2-3-----3---|
|------3-----------------------------|2-------------------------------------|

19
|--------------3-3-2-------------2-|2-3-||
|--------------0-0---------------1-|1-0-||
|0-----------------2---2-0---------|0---||
|----0-----------0---4-----4-2-0---|0---||
|2-2---3-2-0-----------------------|----||
|3-----------3---------------------|----||


Добавлено: 23.07.2012
Другие материалы по этой песне:

Страница создана 26.06.2012
http://primanota.ru/johann-sebastian-bach/siciliano-chords.htm
Привет, Гость.
Предлагаем пройти революционный курс по гитаре.
Подарок от PrimaNota.Ru, забирай!