PrimaNota.ru - самый крупный в мире бесплатный архив песенных текстов, аккордов, табулатур и нот


Бах Иоганн Себастьян - Шутка - аккорды и текст, видео

Регистрация Запомнить меня
Войти через:  Facebook Google Twitter Vk Yandex Mail.ru

Бах Иоганн Себастьян - Шутка - аккорды и текст, видео

Печатать
Просмотров: 666
Шутка
Бах Иоганн Себастьян
Ещё длительности не правильно, но лады все правильные, так что
нужно разобрать. Играть нужно плавно и протяжно.

E|-----10----------------------|------10--9--9----9-12-9-10----|
B|-12---12---12----------------|----12-12-12-12-11----------12-|
G|----------11----11---11------|--11---------------------------|
D|-------------------12---12-9-|-------------------------------|

E|-----10-------------------------|---------------7----------|
B|--12----12---12-----------------|--------------------------|
G|-----------11----11---11--------|--7-6-7--7-6-7---7-7p9--6-|
D|--------------------12---12-9---|--------------------------|

E|--------------10--------------|----5-4-4-----7------------|
B|--7-6-7--7-6-7--7-7p9--6------|---7-7-7-7-6-9-9-10-9-10-9-|
G|------------------------------|--6------------------------|
D|------------------------------|---------------------------|

E|------------7------9-----10------10-9-7-9--------------------|
B|--7-10-7-6-7--7-6-7--7-6-7--7-6-7---------10-9-7-10--9p10--7-|
G|-------------------------------------------------------------|
D|-------------------------------------------------------------|

E|---5-----------------------5--------|
B|--7-7-7---------------5-4-7-8-7-8-5-|
G|-------6-6-6-------5-4--------------|
D|----------7-7-4---------------------|

E|---7-------------------------------------|
B|--8-8-5-8-5-5------7-5-5---5-8-5-7-5-7-5-|
G|-----------6-6----7-7-7-7-6--------------|
D|---------------7-------------------------|

E|----------------------7-------7-5-5-------------|
B|---7-----8-----10----------------8-7-5--7-5p7---|
G|--7-7-6-7-7-6-7--7-6-7-7-6-7----------7-------7-|
D|------------------------------------------------|

E|-----------10-----------|-------------9------------|
B|--7-7--7-7----7-7p8-----|--------------------------|
G|---9----9-----------9---|--9--9---9--9---9-9p11----|
D|------------------------|---12-----12-----------12-|

E|-----10------------------------------------|
B|--12--12-10-8--12-10-8-----8---------------|
G|-----------------------11-9-11-9-----------|
D|---------------------------------12-11-9-8-|
A|-------------------------------------------|

E|----------------------------|
B|----------------------------|
G|---------------9------------|
D|--------9--8-11--12-11-12-9-|
A|-9-10-9---------------------|

E|--------------------------------------------|
B|---------------------12---------------------|
G|-----------9-11---11-----11--9--------------|
D|--9-11-12-------12--------------12-11-12--9-|
Добавлено: 21.09.2013
Другие материалы по этой песне:

Страница создана 07.06.2012
http://primanota.ru/johann-sebastian-bach/shutka-chords.htm
Привет, Гость.
Предлагаем пройти революционный курс по гитаре.
Подарок от PrimaNota.Ru, забирай!