PrimaNota.ru - самый крупный в мире бесплатный архив песенных текстов, аккордов, табулатур и нот


Бах Иоганн Себастьян - Sarabande - Lute Suite No 1 Bwv 996 - таба, видео

Регистрация Запомнить меня
Войти через:  Facebook Google Twitter Vk Yandex Mail.ru

Бах Иоганн Себастьян - Sarabande - Lute Suite No 1 Bwv 996 - таба, видео

Печатать
Просмотров: 173
Уроки эстрадного вокала в Санкт-Петербурге
SARABANDE - LUTE SUITE NO. 1 BWV 996 BY JS BACH


Play the piece slowly and with expression

E--------------------|---------------|-------------|
B-0===1-0------------|-1-----0-------|-----0-1-0---|
G-0===----2-0h2p0----|-0===----2=====|==-2-------2-|
D-2===-----------4-2-|-2===----4===2-|-1=====------|
A--------------------|---------------|-------------|
E-0===---------------|-0====---------|-------------|

  tr.                                  tr.          II
E--------------|-3h2p3-5p3p2p0-------|------------------|
B--------------|-5====---------3===1-|-1p0h1------0-2-4-|
G-2p0h2--------|-4====---------2===--|-0===---------2===|
D-2===----4-2==|=2====---------4===--|--------------4===|
A-------2===2==|=--------------------|------------------|
E-----------3==|=--------------------|-------3===-------|

        II
E-0---------------------|---------------||
B---------------0-------|-0===1-0===--*-||
G-0---0-2===------2-0-2-|---------------|| Repeat
D-2-4---2-4-5-4-2-------|-1===2-4===----||
A---2---3===----3-------|---2===2===--*-||
E-----------------------|---------------||

  II
E-2====-3-2-0-------|-3-2-0-0===----5h7-|-8===7===---5-|
B-3===2===----3-2-0-|-3===--1===5h7h8---|-7===8===-----|
G-4===--------4===--|-0===--0===--------|-5===0========|
D-----4===----4===--|-------------------|-7===0===2===-|
A-2===1===----2===--|-2===--3===--------|---------3----|
E-------------------|-------------------|-0===7===-----|

              VI IV                                   
tr.
E-5===--7-5=|=6-4-6-7===5p3p2p0------|-0===------------------|
B-3===------|-7===--7===-------3p2p0-|-0===7-5-4-5-7-8-------|
G==---------|-6===--4===-------------|-4===------------------|
D---4===----|-------0===-------------|-2===------------9p8h9-|
A-5===------|-7===-------------------|-4===------------------|
E-----------|------------------------|-----------------------|

        tr.                             tr.  
E-------------------|-------------|--------------|
B-0---2-3p2h3-----0-|-0====----0==|=3===---------|
G---0---4===--3===--|-------------|-4===2p1h2--1-|
D-4-2---4===--------|--------4===-|-4===0===-----|
A-2-----------------|------6===---|-2===---------|
E-------------2===--|----7======--|--------------|


E---7/5p3p2p0---|-0----------|---8-7-5------|-------7-5-3-5-7----|
B-------------4=|=-----------|-0===----8-7==|-8===------------4==|
G-2===----------|-0--3===--3-|-----------4==|-----0===--------2==|
D-2===--------4=|=---4===2===|-4===---------|-9-7-------------4==|
A-3===--------3=|==--4===----|-5===------6==|-7===---------------|
E---------------|------------|--------------|--------------------|

        II
E-------3-2-3-5-|---0-2-3-3p2h3p2p0h2---0-|-0===--2-0===---||
B-5===----------|-4-------0===------------|--------------*-||
G-4===----2=====|==-0-2---------------2===|==--1===--------||
D-5===2===------|-4-2===--------------1===|-2===-----------||
A-----3===------|-2===--------------------|--------------*-||
E---------------|-------------------------|-0===-----------||


Repeat then Fin.

Добавлено: 08.04.2012
Другие материалы по этой песне:
  • Аккорды и текст

Страница создана 08.04.2012
http://primanota.ru/johann-sebastian-bach/sarabande-lute-suite-no-1-bwv-996-chords.htm
Привет, Гость.
Предлагаем пройти революционный курс по гитаре.
Подарок от PrimaNota.Ru, забирай!