PrimaNota.ru - самый крупный в мире бесплатный архив песенных текстов, аккордов, табулатур и нот


Бах Иоганн Себастьян - Sarabande - Js Bach Lute Suite No3 Bwv 995 - таба, видео

Регистрация Запомнить меня
Войти через:  Facebook Google Twitter Vk Yandex Mail.ru

Бах Иоганн Себастьян - Sarabande - Js Bach Lute Suite No3 Bwv 995 - таба, видео

Печатать
Просмотров: 134
SARABANDE - JS BACH LUTE SUITE NO.3 BWV 995
VIEW WITH 9PT COURIER


SLOWLY, WITH EXPRESSION


E-----------|-5---------|-7-----------|-----------|
B-5---------|---6-2-3---|---6-2-3---5-|-3-1-------|
G---5-1-2---|-----------|-------------|-----1-2---|
D-----------|-----------|-------------|-----------|
A-----------|-----------|-------------|---------0-|
E---------1-|---------4-|---------0---|-----------|


E---------6-5-|-----3-1-5-3-|-------------|----------||
B-----6-5-----|---3---------|-6-5-0-1---0-|--------*-||
G---5---------|-------------|---------0---|----------|| REPEAT
D-------------|-------------|-------------|----------||
A-0-----------|-2-----------|-3-----------|-3===---*-||
E-------------|-------------|-----1---3---|----------||


E-----------|-----------|-6---------5-|-----------|
B-8-5-0-1---|-8-5-------|---8---------|-8-6-2-3---|
G-----------|-----6-7---|-----6-7-----|-----------|
D-----------|-----------|-------------|-----------|
A---------1-|-----------|---------0---|---------5-|
E-----------|---------0-|-------------|-----------|


E---------3-2-|---------5-4-|-5-----------|---------5-4-|
B-----3-1-----|-----5-3-----|---6-4-5-----|-----5-4-----|
G---2---------|---4---------|---------1-2-|---4---------|
D-------------|-------------|-----3-------|-------------|
A-3-----------|-2-----------|-3-----------|-------------|
E-------------|-------------|-------------|-0-----------|


E-8----------8-|-7-----------|-----------4-|---------5-----||
B---10-4-5-----|---6-2-3---5-|-3-1---------|-----3-------*-||
G--------------|-------------|-----1-2-----|-------5-------|| REPEAT
D--------------|-------------|-----0---2---|---2-----------|| THEN FIN
A--------------|-------------|-0-----------|-0====-------*-||
E----------2---|---------4---|---------0---|---------------||


Добавлено: 16.03.2012
Другие материалы по этой песне:
  • Аккорды и текст

Страница создана 16.03.2012
http://primanota.ru/johann-sebastian-bach/sarabande-js-bach-lute-suite-no3-bwv-995-chords.htm
Привет, Гость.
Предлагаем пройти революционный курс по гитаре.
Подарок от PrimaNota.Ru, забирай!