PrimaNota.ru - самый крупный в мире бесплатный архив песенных текстов, аккордов, табулатур и нот


Бах Иоганн Себастьян - Sarabande - Double From Partita No 1 - таба, видео

Регистрация Запомнить меня
Войти через:  Facebook Google Twitter Vk Yandex Mail.ru

Бах Иоганн Себастьян - Sarabande - Double From Partita No 1 - таба, видео

Печатать
Просмотров: 140
E||--------2--3p-0--------5h-3--|--2--------------------------|
B||--0h-3-----------3--2--------|-----3p-2--3-----------3p-2--|
G||-----------------------------|--------------2--------------|
D||-----------2-----------------|--0--------------4--0--------|
A||--2-----------------0--------|-----------------------------|
E||-----------------------------|-----------------------------|


-----------------------------|-----2-----------------------|
--0-----------5p-3-----2p-0--|--------2--------------------|
-----------------------------|--3--------3-----------------|
-----5p-4--2--------3--------|--------------5p-4--2p-0-----|
-----------------------------|--------------------------4--|
--3--------------------------|--2--------------------------|


-----------------------------|-----------------0-----2p-0--|
--------0--------------------|--------------2--------------|
--------------4p-2-----2p-0--|-----------0--------3--------|
-----4-----------------------|--------2--------------------|
--5--------4--------2--------|--0h-4-----------------------|
-----------------------------|-----------------------------|


-----------------------------|-----------2h-3--2-----------|
--3-----------5p-3--2--------|--------2-----------5p-3--2--|
-----4p-2--------------3h-4--|-----3-----------------------|
-----------5-----------------|--4--------------------------|
--2--------------------------|-----------------------------|
--------------------3--------|-----------------------------|


--------2--3p-0--------5p-3--|--2--------------------------|
--0h-3-----------3--2--------|-----3p-2--3-----------3p-2--|
-----------------------------|--------------2--------------|
-----------2-----------------|--0--------------4--0--------|
--2-----------------0--------|-----------------------------|
-----------------------------|-----------------------------|


-----------------------------|-----2-----------------------|
--0-----------5p-3-----2p-0--|--------2--------------------|
-----------------------------|--3--------3-----------------|
-----5p-4--2--------3--------|--------------5p-4--2p-0-----|
-----------------------------|--------------------------4--|
--3--------------------------|--2--------------------------|


-----------------------------|-----------------0-----2p-0--|
--------0--------------------|--------------2--------------|
--------------4p-2-----2p-0--|-----------0--------3--------|
-----4-----------------------|--------2--------------------|
--5--------4--------2--------|--0h-4-----------------------|
-----------------------------|-----------------------------|


-----------------------------|--2---------------------|--------6--6-----------------|
--3-----------5p-3--2--------|-----2------------------|-----------------------------|
-----4p-2--------------3h-4--|--------3---------------|-----6--------6--------------|
-----------5-----------------|-----------4------------|--4--------------4--2p-0-----|
--2--------------------------|------------------------|--------------------------4--|
--------------------3--------|--2---------------------|-----------------------------|


-----------------7--5p-4--2--|--0--------------2--------4--|
--------0-----7--------------|--------3--2--------3--------|
-----------7-----------------|-----1--------2--------4-----|
-----4-----------------------|--0--------2-----------------|
--5-----------------2--------|-----------------------------|
-----------------------------|--------------------0--------|


--5p-0-----------0--3p-2--0--|--------8--7--------------5--|
--------2-----2--------------|--4-----------5--------4-----|
-----------2-----------------|-----------------------------|
-----------------------------|-----7-----------5--4--------|
--0--------------------------|-----------------------------|
-----------------------------|-----------------------------|


-----------------5--3--------|-----3p-2--------0-----------|
-----------------------4h-5--|--------------------------4--|
--5-----------4--------------|--------------0--------2-----|
-----7-----------------------|--------------------4--------|
--------7--6-----------------|--0--------2--------2--------|
--------------------0--------|-----------------------------|


--0-----------------0p-2--3--|--5p-0-----------------------|
-----0-----------0-----------|--------3--2p-0--------------|
--------0-----0--------------|-----------------2-----------|
-----------2--------0--------|--------------------5p-4--2--|
-----------------------------|--4-----------------0--------|
--0--------------------------|-----------------------------|


--------------2p-0--2--------|--------------7p-5--3--0h-2--|
--------2h-3-----------------|--------0--------------------|
-----2-----------------2-----|-----------6-----------------|
--4-----------------------0--|-----0--------------0--------|
--5--------------------------|-----------7-----------------|
-----------------------------|--3--------------------------|


--0--------------------------|--------0--3p-2--0-----------|
-----2p-0--2-----------------|-----2--------------3h-5--2--|
--------------2p-1--2--------|--3--------------------------|
-----------------------2h-5--|-----------------------------|
--0--------------------------|--4--------1-----------------|
-----------------------------|--------------------2--------|


--------------2p-0--2--------|--------2--0-----------------|
--3--0h-2--3-----------------|-----0--------2h-3--2--------|
-----------------------2-----|--0--------------------3h-4--|
--------------------------4--|-----------------------------|
--2-----------------0--------|-----------------------------|
-----------------------------|--------------------3--------|


-----------------------------|-----------------------------|
-----2-----------------------|-----------------2--2p-0--3--|
--3-----4--3--1--------------|--------4--4p-3--------------|
-----------------4--2p-0-----|--0h-4-----------------------|
--------------------------4--|-----------4--------2--------|
--2--------------------------|-----------------------------|


--------------------------7--|--------------------------0--|
--3p-0-----------0-----9-----|--------2--2p-0--3--3p-2-----|
--------1-----1-----7--------|-----0-----------------------|
-----------2-----------------|--2--------0-----------------|
-----------------------------|--------------------4--------|
--0--------------------------|-----------------------------|


--0-----------------0h-6--9--|-----7--------5--------3-----|
-----2-----------2-----------|-----------------------------|
--------3-----3--------------|--7--------6--------4--------|
-----------4-----------------|-----------------------------|
-----------------------------|--------9--------7--------5--|
--2--------------------------|-----------------------------|


-----------------0--3p-2--0--|--6h-7-----------------------|
--------------2--------------|--------6h-7-----------------|
--------0--3-----------------|--------------6h-7-----4p-3--|
-----2-----------------------|--------------------4--------|
--4--------------------------|-----------------------------|
-----------------------------|-----------------------------|


-----------------------------|--------6--6-----------------|
-----------------------------|-----------------------------|
--4-----------------4h-6--7--|-----6--------6--------------|
-----4-----------4-----------|--4--------------4--2p-0-----|
--------5-----5--------------|--------------------------4--|
--7--------7-----------------|-----------------------------|


-----------------7--5p-4--2--|--0--------------2--------4--|
--------0-----7--------------|--------3--2--------3--------|
-----------7-----------------|-----1--------2--------4-----|
-----4-----------------------|--0--------2-----------------|
--5-----------------2--------|-----------------------------|
-----------------------------|--------------------0--------|


--5p-0-----------0--3p-2--0--|--------8--7--------------5--|
--------2-----2--------------|--4-----------5--------4-----|
-----------2-----------------|-----------------------------|
-----------------------------|-----7-----------5--4--------|
--0--------------------------|-----------------------------|
-----------------------------|-----------------------------|


-----------------5--3--------|-----3p-2--------0-----------|
-----------------------4h-5--|--------------------------4--|
--5-----------4--------------|--------------0--------2-----|
-----7-----------------------|--------------------4--------|
--------7--6-----------------|--0--------2--------2--------|
--------------------0--------|-----------------------------|


--0-----------------0h-2--3--|--5p-0-----------------------|
-----0-----------0-----------|--------3--2p-0--------------|
--------0-----0--------------|-----------------2-----------|
-----------2--------0--------|--------------------5p-4--2--|
-----------------------------|--4-----------------0--------|
--0--------------------------|-----------------------------|


--------------2p-0--2--------|--------------7p-5--3--0h-2--|
--------2h-3-----------------|--------0--------------------|
-----2-----------------2-----|-----------6-----------------|
--4-----------------------0--|-----0--------------0--------|
--5--------------------------|-----------7-----------------|
-----------------------------|--3--------------------------|


--0--------------------------|--------0--3p-2--0-----------|
-----2p-0--2-----------------|-----2--------------3h-5--2--|
--------------2p-1--2--------|--3--------------------------|
-----------------------2h-5--|-----------------------------|
--0--------------------------|--4--------1-----------------|
-----------------------------|--------------------2--------|


--------------2p-0--2--------|--------2--0-----------------|
--3--0h-2--3-----------------|-----0--------2h-3--2--------|
-----------------------2-----|--0--------------------3h-4--|
--------------------------4--|-----------------------------|
--2-----------------0--------|-----------------------------|
-----------------------------|--------------------3--------|


-----------------------------|-----------------------------|
-----2-----------------------|-----------------2--2p-0--3--|
--3-----4--3--1--------------|--------4--4p-3--------------|
-----------------4--2p-0-----|--0h-4-----------------------|
--------------------------4--|-----------4--------2--------|
--2--------------------------|-----------------------------|


--------------------------7--|--------------------------0--|
--3p-0-----------0-----9-----|--------2--2p-0--3--3p-2-----|
--------1-----1-----7--------|-----0-----------------------|
-----------2-----------------|--2--------0-----------------|
-----------------------------|--------------------4--------|
--0--------------------------|-----------------------------|


--0-----------------0h-6--9--|-----7--------5--------3-----|
-----2-----------2-----------|-----------------------------|
--------3-----3--------------|--7--------6--------4--------|
-----------4-----------------|-----------------------------|
-----------------------------|--------9--------7--------5--|
--2--------------------------|-----------------------------|


-----------------0--3p-2--0--|--6--7-----------------------|---------------------7-----|
--------------2--------------|--------6--7-----------------|------------------7--------|
--------0--3-----------------|--------------6--7-----------|---------------7-----------|
-----2-----------------------|-----------------------9p-8--|------------9--------------|
--4--------------------------|--------------------9--------|---------9-----------------|
-----------------------------|-----------------------------|--7h-10--------------------| 
Добавлено: 28.02.2012
Другие материалы по этой песне:

Страница создана 28.02.2012
http://primanota.ru/johann-sebastian-bach/sarabande-double-from-partita-no-1-chords.htm
Привет, Гость.
Предлагаем пройти революционный курс по гитаре.
Подарок от PrimaNota.Ru, забирай!