PrimaNota.ru - самый крупный в мире бесплатный архив песенных текстов, аккордов, табулатур и нот


Бах Иоганн Себастьян - Quia Respexit - таба, видео

Регистрация Запомнить меня
Войти через:  Facebook Google Twitter Vk Yandex Mail.ru

Бах Иоганн Себастьян - Quia Respexit - таба, видео

Печатать
Просмотров: 272
----------------------------------------------------------------------------
                   Quia respexit - Johann Sebastian Bach
----------------------------------------------------------------------------


Tabbed by: Dave S. 
Email: prime-prine@hotmail.com

Tuning: (Standard) Drop D


 
E||-------1--0--3--1--0-----|----------0--------------|
B||----------------------3--|--2----3-----------------|
G||--2----------------------|--0----------0-----------|
D||--3----------------------|-------------------------|
A||-------------------------|-------------------------|
D||--0----------------0-----|--2-------------2--3--5--|

   
-----1--0-----------------|--------------------------|
-----------3--2-----------|--------------------------|
-----------------3--2--0--|-----0--2--3--5-----------|
--------------------------|--4-----------------------|
--0-----------------0-----|--0--------------------0--|
--------------------------|--0--------------4--5-----|

  
-----6--5--3--2-----------|--------------------------|
-----------------4--3-----|--------3--5--6--------0--|
-----------------------5--|--3--5--------------------|
--------------------------|-----------------6--7-----|
--------------------------|--------------------------|
--0-----------------0-----|--5-----------------------|

  
-----8--7--5--4-----0-----|--------------------------|
-----------------6-----3--|--2--------------4--3--2--|
--------------------------|-----3--2--0--------------|
--------------------------|--------------3-----------|
--7-----------------------|--0-----------------0-----|
--------------------2-----|--------------------------|

  
--------------------------|--------------------------|
--3-----------------------|--------0--2--3-----------|
-----3--2--1--1--2--0-----|-----2--------------------|
-----------------------3--|--0-----------------------|
--------------0-----------|-----------------------0--|
--3-----0-----------------|--0--------------3--5-----|

  
---------3h-5-3-----0----|----------0-------------|-------0---------------|
--6--------------6-----3-|--2----3----------------|------------3--2-------|
-------------------------|-------------0----------|------------------3--2-|
--0----------------------|------------------------|-----------------------|
-------------------------|--0---------------------|--0---------------0----|
--------------------0----|----------------2--3--5-|-----------------------|

   
------------------------|-------5----3--2--------|------------------------|
------------------------|------------------4--3--|------------------------|
--0---------------------|------------------------|--5----3----3--------2--|
-------3----3-----------|------------------------|---------------3--5-----|
---------------------0--|------------------------|------------------------|
--0------------3--5-----|--0---------------0-----|--5---------------------|

  
-----5--3-----3-----0----|---------0-------------|------------------------|
--3--------6-----6-----3-|-2----3----------------|----6--5--3--2----------|
--3-----------0----------|------------0--------0-|----------------3--2--0-|
-------------------------|-2-------------2--3----|------------------------|
--------------------0----|------------0----------|-4-----------------4----|
-------------------------|-----------------------|------------------------|

   
-----------------------3--|-------3h-5-3-----0----|----------0------------|
--------0--2--3--6--5-----|-6-------------6-----3-|--2-----3--------------|
-----2--------------------|-----------------------|------------0----------|
--4-----------------------|-0---------------------|-----------------------|
--------------------------|-----------------------|---------------0--2--4-|
--0-----------------------|------------------0----|--2--------------------|

   
-------5----------------|------------------------|-------3----1--0--------|
--7---------8--7--4--3--|------------------------|------------------3--1--|
------------------------|--5----3----3-----------|--3---------------------|
------------------------|------------------------|--2---------------------|
--6---------------------|------------------0--1--|--3---------------------|
------------------4-----|--5------------5--------|------------------2-----|

  
-------------------1----|----6--5--3-----0--3----|-------------1----------|
------------------------|-3-----------6----------|----------1-------------|
--3----2--3--2-----0--2-|-3-----3-----5--------3-|-3--0--2-----------0--2-|
----------------3-------|------------------------|----------------3-------|
------------------------|-------------------3----|------------------------|
--3---------------------|------------------------|-3----------------------|

   
-----5--3--1--0-----1-----|--------------0-----------|
-----------------3--------|--------------------------|
-----------------------2--|--2-----0--3--------------|
--0-----------------------|-----3--------------------|
--------------------1-----|--------------------------|
--------------------------|--2--------------2--3--5--|

   
-----3--1--0--------0-----|--------------------------|
--------------3--1--------|--------------3-----------|
-----------------------0--|--0--------2-----2--3--0--|
--------------------------|-----2--3-----------------|
--3-----------------0-----|--------------------------|
--------------------------|--0-----------------5-----|

     
--------------------------|------------------------|-----------------1----|
--------------1-----------|------------------------|------------1---------|
-----------0-----0--2-----|----------3--0----------|----------------------|
--3--0--2--------------2--|--3------------------3--|--3-------------------|
--------3-----0-----------|-------1-----3----3-----|------------0---------|
--------------------------|------------------------|--3----5---------3----|

    
--0--1h-3-3--------------|-----------------3----|--1--3h-5-5--------------|
-------------------------|------------3---------|-------------------------|
-------------------------|-----------------0----|-------------------------|
-------------------------|----------------------|--0----------------------|
--3------------1----0----|-------0----1---------|---------------3----1----|
-------------------------|--5-------------------|-------------------------|

   
-----------------5--3--|--1----0-----3---------|--0--------------1--0--|
-----------------------|----------3-------3----|-------1---------------|
------------2----------|-------2----------0----|-----------------------|
-------3---------3-----|--0--------------------|-------2----3----------|
--0--------------------|-------------2---------|--3--------------------|
-----------------------|-----------------------|-----------------------|

   
-------------0---------|----------------------|--0--1--0-----------------|
--3----1--0-------0----|--1-------------------|-----------3--2-----------|
------------------1----|-------2---------2----|-----------------3--2--0--|
-----------------------|------------2---------|--------------------------|
--2--------------------|--0-------------------|--0-----------------0-----|
-------------2---------|----------------------|--------------------------|

   
-------1--0-------------|-----3--2--0--------0--2-|--0--5--4--1--0----------|
-------------3--1--0----|--4-----------4--1-------|--0--------------3--1--0-|
----------------------2-|-------------------------|--1----------------------|
--3---------------------|-------------------------|--------------------2----|
------------------------|--2-----------------2----|-------------------------|
--0---------------------|-------------------------|--2----------------------|

                 
-------------------------|-------------------||
--1--0--1----------------|-------------------||
-----------2--1-------2--|--2----------------||
--------2----------------|--2----------------||
--0----------------------|--0----------------||
--------------2----2-----|-------------------||

| /  slide up
| \  slide down
| h  hammer-on
| p  pull-off
| ~  vibrato
| +  harmonic
| x  Mute note
===========================================================================
Добавлено: 06.07.2012
Другие материалы по этой песне:

Страница создана 27.02.2012
http://primanota.ru/johann-sebastian-bach/quia-respexit-chords.htm
Привет, Гость.
Предлагаем пройти революционный курс по гитаре.
Подарок от PrimaNota.Ru, забирай!