PrimaNota.ru - самый крупный в мире бесплатный архив песенных текстов, аккордов, табулатур и нот


Бах Иоганн Себастьян - Прелюдия в C (из ХТК) - аккорды и текст, видео

Регистрация Запомнить меня
Войти через:  Facebook Google Twitter Vk Yandex Mail.ru

Бах Иоганн Себастьян - Прелюдия в C (из ХТК) - аккорды и текст, видео

Печатать
Просмотров: 181
Прелюдия в C (из ХТК)
Бах Иоганн Себастьян
1
  E|--1--------------------------1----------------------|
4 B|----------------------------------------------------|
/ G|----------------------------------------------------|
4 D|-----1--0--1-----1--0--1--------1--0--1-----1--0--1-|
  A|--3-----------3--------------3-----------3----------|
  E|----------------------------------------------------|

2
E|----------------------------------------------------|
B|----------------------------------------------------|
G|--1--------------------------1----------------------|
D|-----3--2--3-----3--2--3--------3--2--3-----3--2--3-|
A|--3-----------3--------------3-----------3----------|
E|----------------------------------------------------|

3
E|-----------------------------------------------------|
B|---0-------------------------0-----------------------|
G|-----------------------------------------------------|
D|------3--1--3--0--3--1--3--------3--1--3--0--3--1--3-|
A|---3-------------------------3-----------------------|
E|-----------------------------------------------------|

4
E|----------------------------------------------------|
B|---1-------------------------1----------------------|
G|------0-----0-----0-----0--------0-----0-----0----0-|
D|---------3-----1-----3--------------3-----1-----3---|
A|---3-------------------------3----------------------|
E|----------------------------------------------------|

5(Баррэ на 3-ем ладу)
E|----------------------------------------------------|
B|---4-------------------------4----------------------|
G|----------------------------------------------------|
D|------6--5--6--3--6--5--6-------6--5--6--3--6--5--6-|
A|---3-------------------------3----------------------|
E|----------------------------------------------------|

6
E|----------------------------------------------------|
B|---3-------------------------3----------------------|
G|----------------------------------------------------|
D|------4--2--4--0--4--2--4-------4--2--4--0--4--2--4-|
A|---3-------------------------3----------------------|
E|----------------------------------------------------|

7
E|----------------------------------------------------|
B|---3-------------------------3----------------------|
G|------0-----0-----0-----0-------0-----0-----0-----0-|
D|---------4-----0-----4-------------4-----0-----4----|
A|---1-------------------------1----------------------|
E|----------------------------------------------------|

8
E|----------------------------------------------------|
B|---1-------------------------1----------------------|
G|----------------------------------------------------|
D|------2--0--2-----2--0--2-------2--0--2-----2--0--2-|
A|---1-----------3-------------1-----------3----------|
E|----------------------------------------------------|

9
E|----------------------------------------------------|
B|--1--------------------------1----------------------|
G|----------------------------------------------------|
D|-----3--2--3-----3--2--3--------3--2--3-----3--2--3-|
A|--------------3--------------------------3----------|
E|--4--------------------------4----------------------|

10
E|----------------------------------------------------|
B|----------------------------------------------------|
G|---3-------------------------3----------------------|
D|------3--1--3--0--3--1--3-------3--1--3--0--3--1--3-|
A|----------------------------------------------------|
E|---4-------------------------4----------------------|

11
E|----------------------------------------------------|
B|----------------------------------------------------|
G|---3--0-----0-----0-----0----3--0-----0-----0-----0-|
D|---------3-----1-----3-------------3-----1-----3----|
A|----------------------------------------------------|
E|---3-------------------------3----------------------|

12
E|----------------------------------------------------|
B|----------------------------------------------------|
G|---1--0-----0-----0-----0----1--0-----0-----0-----0-|
D|---------3-----1-----3-------------3-----1-----3----|
A|---3-------------------------3----------------------|
E|----------------------------------------------------|

13
E|----------------------------------------------------|
B|----------------------------------------------------|
G|---1--1----------------------1--1-------------------|
D|---0--0-----0-----0-----0----0--0-----0-----0-----0-|
A|---------3-----1-----3-------------3-----1-----3----|
E|----------------------------------------------------|

14
E|-----------------------------------------------------|
B|-----------------------------------------------------|
G|---0-------------------------0-----------------------|
D|---1-----------1-------------1------------1----------|
A|------1-----1-----1-----1-------1------1-----1-----1-|
E|---------4-----------4--------------4-----------4----|

15(Барре на 3-ем ладу)
E|----------------------------------------------------|
B|----------------------------------------------------|
G|----------------------------------------------------|
D|---3-------------------------3----------------------|
A|------3-----3-----3-----3-------3-----3-----3-----3-|
E|---3-----6-----5-----6-------3-----6-----5-----6----|

16
E|---------------------------------------------------|
B|---------------------------------------------------|
G|---------------------------------------------------|
D|---3--0-----0-----0-----0----3--0-----0-----0----0-|
A|---5-----3-----2-----3-------5-----3-----2-----3---|
E|---------------------------------------------------|

17
E|---------------------------------------------------|
B|---------------------------------------------------|
G|---------------------------------------------------|
D|---3--0-----0-----0-----0---3--0-----0-----0-----0-|
A|---3-----3-----2-----3------3-----3-----2-----3----|
E|---------------------------------------------------|

18
E|---------------------------------------------------|
B|---------------------------------------------------|
G|---------------------------------------------------|
D|---1-----------1------------1-----------1----------|
A|---3--3--2--3-----3--2--3---1--3--2--3-----3--2--3-|
E|---------------------------------------------------|

19
E|---------------------------------------------------|
B|---------------------------------------------------|
G|---------------------------------------------------|
D|---3-----------3------------3-----------3----------|
A|------6--5--6-----6--5--6------6--5--6-----6--5--6-|
E|---4------------------------4----------------------|

20
E|---------------------------------------------------|
B|---------------------------------------------------|
G|---------------------------------------------------|
D|---4-----------1------------4-----------1----------|
A|---0--3--2--3-----3--2--3---0--3--2--3-----3--2--3-|
E|---------------------------------------------------|

21
E|--------------------------------------------------|
B|--------------------------------------------------|
G|--------------------------------------------------|
D|---1-----------------------1----------------------|
A|------3--2--3----3--2--3------3--2--3-----3--2--3-|
E|---3-----------3-----------3-----------3----------|

22
E|---------------------------------------------------|
B|---------------------------------------------------|
G|---------------------------------------------------|
D|---4------------0-----------4-----------0----------|
A|-------3--2--3-----3--2--3-----3--2--3-----3--2--3-|
E|---3------------------------3----------------------|

23
E|---------------------------------------------------|
B|---------------------------------------------------|
G|---0------------------------0----------------------|
D|---------------0------------------------0----------|
A|------3--2--3-----3--2--3------3--2--3-----3--2--3-|
E|---3------------------------3----------------------|

24                Немного замедляем
E|----------------------------------------------------|
B|----------------------------------------------------|
G|---1-------------------------1----------------------|
D|---------------0-------------------------0----------|
A|------3--2--3-----3--2--3-------3--2--3-----3--2--3-|
E|---3-------------------------3----------------------|

25  здесь играется быстро.
Старайтесь, чтоб ноты звучали как можно дольше
E|---------------------------------------------------|
B|----------------------------0-----3-----0----------|
G|----------------1----------------------------------|
D|---------0--3------3--2--3-----3-----3-----3--2--3-|
A|------2--------------------------------------------|
E|---3-----------------------------------------------|

26
E|---------------------------------3-----------------|
B|---------------1-----------4--------4--------------|
G|------------0-----0-----0-----5--------5-----------|
D|---------1-----------4---------------------6--5--6-|
A|------3--------------------------------------------|
E|---3-----------------------------------------------|

27
E|----------------------------------5----------------|
B|----------------4-----------7--------7--4----------|
G|-------------5-----5--4--5-----6-----------5--4--5-|
D|----------4----------------------------------------|
A|------0--------------------------------------------|
E|---3-----------------------------------------------|

28 Взяли басс G и пока он звучит играете остальное.
Часть играется медленно, для усиления трагического
эффекта потехоньку замедлять.
E|-----------------------------------------------------|
B|------3-----3--4-----------------------3-------------|
G|---------5--------5--4--5--2--5--4--5-----4--2--4----|
D|---------------------------------------------------5-|
A|-----------------------------------------------------|
E|---3-------------------------------------------------|

29
E|--------------------------------------------------|
B|--------------------------------------------------|
G|---4--2--4--5--2-----2-----2-----2--4-------------|
D|------------------5-----4-----5--------5--4--5--0-|
A|--------------------------------------------------|
E|--------------------------------------------------|

30
E|---3-----3--4-----------------------3-------------|
B|------6--------6--4--6--3--6--4--6-----4--3--4----|
G|------------------------------------------------5-|
D|--------------------------------------------------|
A|--------------------------------------------------|
E|--------------------------------------------------|

31
E|---------------------------------------------------|
B|---4--3--4---6--3-----3-----3-----3--4-------------|
G|-------------------5-----4-----5--------5--4--5--0-|
D|---------------------------------------------------|
A|---------------------------------------------------|
E|---------------------------------------------------|

32
E|--------------------------------------1-----1----|
B|---1--0--1-----3--1--3-----4--3--4-------4-------|
G|------------1-----------0------------------------|
D|------------------------------------3----------1-|
A|-------------------------------------------------|
E|-------------------------------------------------|

33                              пусть звучит
E|--------------------------------------------------|
B|---1--0--1----------------------------------------|
G|------------1-----------0-----------------------0-|
D|---------------3--1--3-----1--0--1--3--0-----0--2-|
A|------------------------------------------3-----3-|
E|--------------------------------------------------|

34
E|-------------------------------------------------------------|
B|------------------------1------------------------------------|
G|---------------0--1--3-----3--1--0-----------------------2-2-|
D|------0--2--3-----------------------2-3-2-3-2-3-2-3-2-3--3-3-|
A|---3-----------------------------------------------------3-3-|
E|-------------------------------------------------------------|

35
E|-----------------------------------------------------------|
B|-----------------------------------------------------------|
G|---0-----------0--1--0-------------------------------------|
D|------3--2--3-----------3--1--0--1--3--0--1--3-----1-----0-|
A|------------------------------------------------2-----2----|
E|-----------------------------------------------------------|

36
E|-------------------------------------------------|
B|---0-----3-----0--------------2--------1---------|
G|------------------1--0-----------3--0-----1----1-|
D|------3-----3------------3--2----------------3---|
A|---3-----3-----3---------------------------------|
E|-------------------------------------------------|

37
E|--------------------------------------------------|
B|--------------------------------------------------|
G|---0--3--0-----1--------------0-------------------|
D|------------2-----3--0--3--2-----2-----3--0-----0-|
A|------------------------------------3--------2----|
E|--------------------------------------------------|

38
E|-------------------------------1-----1--4---8--7--8----------|
B|-------------------------1--1-----3------------------8--6----|
G|----------------0--3--0--1---------------------------------7-|
D|----------0--2-----------------------------------------------|
A|-3-----3-----3-----------------------------------------------|
E|----3--------------------------------------------------------|

E|--0-|
B|--1-|
G|--0-|
D|--2-|
A|--3-|
E|----|
Добавлено: 04.09.2013
http://primanota.ru/johann-sebastian-bach/prelyudiya-v-c-iz-xtk-chords.htm
Привет, Гость.
Предлагаем пройти революционный курс по гитаре.
Подарок от PrimaNota.Ru, забирай!