PrimaNota.ru - самый крупный в мире бесплатный архив песенных текстов, аккордов, табулатур и нот


Бах Иоганн Себастьян - Prelude Bvw 999 - таба, видео

Регистрация Запомнить меня
Войти через:  Facebook Google Twitter Vk Yandex Mail.ru

Бах Иоганн Себастьян - Prelude Bvw 999 - таба, видео

Печатать
Просмотров: 142
                          Suite for Lute: Prelude (I)                           


J.S. Bach (1685-1750)




     S S S S S S S S S S S S    S S S S S S S S S S S S  
E||--------5-----------------|--------5-----------------|
B||------6---6---6-----------|------6---6---6-----------|
G||----7-------7---7---7---7-|----7-------7---7---7---7-|
D||--0-------------L-7-L-----|--0-------------L-7-L-----|
A||----------------------8-L-|----------------------8-L-|
E||--------------------------|--------------------------|


  S S S S S S S S S S S S    S S S S S S S S S S S S  
--------6-----------------|--------6-----------------|
------8---8---8-----------|------8---8---8-----------|
----7-------7---7---7---7-|----7-------7---7---7---7-|
--0-------------L-8-L-5-L-|--0-------------L-8-L-5-L-|
--------------------------|--------------------------|
--------------------------|--------------------------|


  S S S S S S S S S S S S    S S S S S S S S S S S S  
--------3-----------------|--------3-----------------|
------5---5---5-----2---2-|------5---5---5-----2---2-|
----6-------6---6-3-L-----|----6-------6---6-3-L-----|
--0-------------L-----5-L-|--0-------------L-----5-L-|
--------------------------|--------------------------|
--------------------------|--------------------------|


  S S S S S S S S S S S S    S S S S S S S S S S S S  
--------1-----------------|--------1-----------------|
------3---3---3-----------|------3---3---3-----------|
----2-------2---2---2---2-|----2-------2---2---2---2-|
--0-------------L-3-L-0-L-|------------------3-L-0-L-|
--------------------------|--3-------------L---------|
--------------------------|--------------------------|


  S S S S S S S S S S S S    S S S S S S S S S S S S  
--------1-----------------|--------1-----------------|
------3---3---3-----------|------3---3---3-----------|
----2-------2---2---2---2-|----2-------2---2---2---2-|
----------------L-3-L-0-L-|------------------3-L-0-L-|
--1-------------L---------|--0-------------L---------|
--------------------------|--------------------------|


  S S S S S S S S S S S S    S S S S S S S S S S S S  
--------1-----------------|--------1-----------------|
------3---3---3-----------|------3---3---3-----0---0-|
----4-------4---4---4---4-|----4-------4---4-1-L-----|
------------------3-L-0-L-|----------------------2-L-|
--------------------------|--------------------------|
--4-------------L---------|--4-------------L---------|


  S S S S S S S S S S S S    S S S S S S S S S S S S  
--------0-----------------|--------0-----------------|
------1---1---1-----------|------1---1---1-----------|
----4-------4---4---4---4-|----2-------2---2---2---2-|
------------------2-L-----|--------------------------|
--0-------------L-----3-L-|--0-------------L-3-L-0-L-|
--------------------------|--------------------------|


  S S S S S S S S S S S S    S S S S S S S S S S S S  
--------5-----------------|--------5-----------------|
------5---5---5-----1---1-|------6---6---6-----0---0-|
----5-------5---5-2-L-----|----4-------4---4---------|
----------------------3-L-|--0-------------L-0-L-----|
--------------------------|----------------------2-L-|
--1-------------L---------|--------------------------|


  S S S S S S S S S S S S    S S S S S S S S S S S S  
--------4-----------------|--------4-----------------|
------3---3---3-----------|------3---3---3-----------|
----4-------4---4---4---4-|----4-------4---4---4---4-|
------------------2-L-----|------------------2-L-----|
----------------------2-L-|----------------------2-L-|
--0-------------L---------|--0-------------L---------|


  S S S S S S S S S S S S    S S S S S S S S S S S S  
--------5-----------------|--------7-----------------|
------5---5---5-----------|------9---9---9-----------|
----5-------5---5---5---5-|----7-------7---7---7---7-|
--------------------------|----------------------0-L-|
------------------7-L-----|------------------8-L-----|
--0-------------L-----8-L-|--0-------------L---------|


  S S  S S  S S  S S S S S S    S S S  S S S S S S S  S S  
---------8-------------------|--------10------------------|
------10---10---10-----------|------9----9---9------------|
----9---------9----9---9---9-|----9--------9---9---9----9-|
---------------------7-L-----|-------------------9-L------|
-------------------------7-L-|-----------------------11-L-|
--0----------------L---------|--0--------------L----------|


  S S  S S  S S  S S S S S S    S S S S S S S S S S S S  
---------8-------------------|--------7-----------------|
------10---10---10-----------|------6---6---6-----------|
----8---------8----8---8---8-|----7-------7---7---7---7-|
---------------------7-L-----|------------------6-L-----|
-------------------------8-L-|----------------------7-L-|
--0----------------L---------|--0-------------L---------|


  S S S S S S S S S S S S    S S S S S S S S S S S S  
--------5-----------------|--------5-----------------|
------7---7---7-----------|------3---3---3-----------|
----5-------5---5---5---5-|----4-------4---4---4---4-|
------------------4-L-----|------------------3-L-0-L-|
----------------------6-L-|--------------------------|
--0-------------L---------|--0-------------L---------|


  S S S S S S S S S S S S    S S S S S S S S S S S S  
--------4-----------------|--------2-----------------|
------3---3---3-----------|------1---1---1-----------|
----4-------4---4---4---4-|----2-------2---2---2---2-|
------------------2-L-----|------------------1-L-----|
----------------------2-L-|----------------------3-L-|
--0-------------L---------|--0-------------L---------|


  S S S S S S S S S S S S    S S S S S S S S S S S S  
--------1-----------------|--------0-----------------|
------0---0---0-----------|------1---1---1-----------|
----1-------1---1---1---1-|----2-------2---2---2---2-|
------------------0-L-----|--------------------------|
----------------------2-L-|------------------3-L-0-L-|
--0-------------L---------|--0-------------L---------|


  S S S S S S S S S S S S    S S S S S S S S S S S S  
--------------------------|--------------------------|
------0---0---0-----------|------0---0---0-----------|
--------7-----------------|--------7-----------------|
----7-------7---7---7---7-|----6-------6---6---6---6-|
------------------8-L-5-L-|------------------7-L-----|
--0-------------L---------|--0-------------L-----7-L-|


  S S S S S S S S S S S S    S S S S S S S S S S S S  
--------------------------|--------------------------|
------0---0---0-----------|------0-------------------|
--------7-----------------|--------7-6---6-----2---2-|
----6-------6---6---6---6-|----7-------7---7-2-L-----|
------------------8-L-5-L-|--0-------------L-----4-L-|
--0-------------L---------|--------------------------|


  S S S S S S S S S S S S    S S S S S S S S S S S S  
--------4-----------------|--------7-----------------|
------3---3---3-----------|------9---9---9-----------|
----4-------4---4---4---4-|----7-------7---7---7---7-|
------------------3-L-0-L-|----------------------0-L-|
--0-------------L---------|--0-------------L-8-L-----|
--------------------------|--------------------------|


  S S S S S S S S S S S S    S S S S S S S S S S S S  
--------5-----------------|--------3-----------------|
------5---5---5-----------|------5---5---5-----2---2-|
----6-------6---6---6---6-|----6-------6---6-3-L-----|
------------------7-L-----|----------------------5-L-|
--0-------------L-----7-L-|--0-------------L---------|
--------------------------|--------------------------|


  S S S S S S S S S S S S    S S S S S S S S S S S S  
--------1-----------------|--------1-----------------|
------3---3---3-----------|------3---3---3-----------|
----2-------2---2---2---2-|----1-------1---1---1---1-|
------------------3-L-0-L-|------------------3-L-0-L-|
--0-------------L---------|--0-------------L---------|
--------------------------|--------------------------|


  S S S S S S S S S S S S    S S S S S S S S S S S S    H        Q      
--------1-----------------|------------------------4-|--5-------------||
------3---3---3-----------|--------5-------5-6-------|--2-------------||
----1-------1---1---1---1-|------6---6---6-----7-4---|--2-------------||
------------------3-L-0-L-|----7-------7-------------|----------------||
--0-------------L---------|--0-------------L---------|--0-------------||
--------------------------|--------------------------|----------------||




Duration Legend
---------------
W - whole
H - half
Q - quarter
E - 8th
S - 16th
T - 32nd
X - 64th
. - note dotted
|-n-|  - n-tuplets


Tablature Legend
----------------
L - tied note
x - dead note
g - grace note
(n) - ghost note
> - accentuded note
NH - natural harmonic
AH - artificial harmonic
TH - tapped harmonic
SH - semi harmonic
PH - pitch harmonic
h - hammer on
p - pull off
b - bend
br - bendRelease
pb - preBend
pbr - preBendRelease
brb - bendReleaseBend
\n/ - tremolo bar dip
\n - tremolo bar dive
-/n - tremolo bar Release up
/n\ - tremolo bar inverted dip
/n - tremolo bar return
-\n - tremolo bar Release down
S - shift slide
s - legato slide
/ -  slide into from below or out of upwards
\ -  slide into from above or out of downwards
~ - vibrato
W - wide vibrato
tr - trill
TP - tremolo picking
T - tapping
S - slap
P - pop
< - fade in
^ - brush up
v - brush down
Добавлено: 20.07.2012
Другие материалы по этой песне:
  • Аккорды и текст

Страница создана 20.07.2012
http://primanota.ru/johann-sebastian-bach/prelude-bvw-999-chords.htm
Привет, Гость.
Предлагаем пройти революционный курс по гитаре.
Подарок от PrimaNota.Ru, забирай!