PrimaNota.ru - самый крупный в мире бесплатный архив песенных текстов, аккордов, табулатур и нот


Бах Иоганн Себастьян - Praeludium Abridged - таба, видео

Регистрация Запомнить меня
Войти через:  Facebook Google Twitter Vk Yandex Mail.ru

Бах Иоганн Себастьян - Praeludium Abridged - таба, видео

Печатать
Просмотров: 51
--------------------------------------------------------------------------------------------------------------
                                          PRAELUDIUM (ABRIDGED) - Bach
--------------------------------------------------------------------------------------------------------------
Tabbed by: Jorge Sanchez (Redtabz)

Tuning:Standard

So guys, when I said this version was abridged, it's because I have merged the beginning of this song with the 
end of it.  I was doing the whole song but the tabs were getting very messy and were sounding choppy so this 
was my way of addressing that. Without further ado,I hope you enjoy this Bach-teaser solo,complete with chord 
"commentary" and footnotes.
                                              
  
e|-----------0-----0--------0------0------------1-----1----------1-----1-----------1-----1---------1-----1----|
B|---------1-----1--------1-----1------------3------3----------3-----3-----------3-----3---------3-----3------|
G|-------0-----0-------0------0-----------2-------2---------2------2----------0------0---------0-----0--------|
D|-----2-------------2------------------0----------------0------------------0---------------0-----------------|
A|---3------------3------------------3-----------------3-----------------2---------------2--------------------|
E|------------------------------------------------------------------------------------------------------------| 
Arp:(C)                            (Dm/C)                             (G7/B)
  
  *
        

          
e|------------0-----0----------0-----0---------1-------------------------------1---------------------0--------|
B|----------1-----1----------1-----1---------1---1--1------------------------3---3-0-3-0---0---------1--------|
G|--------0-----0----------3-----3---------2------2---2----2---------------0-------------0-----------0--------|
D|------2----------------2---------------3---------------3---3-0-3-0-----0------------------0-3-2-0--2--------|
A|----3----------------3---------------3-------------------------------2-----------------------------3--------|
E|-----------------------------------1-------------------------------3----------------------------------------|
    (C)               (C7)          (F, barred)                     (G7)                            (C)

                      ##                                     **      *             **                *




                                                    ~*~

         *=allow for the notes to ring by holding fingers in chord positions. Do not play choppy.
        **=start playing choppy
        ##=this is where the beginning of the song merges with the very end. This is why this C 
           arpeggio does not repeat like the rest.

---------------------------------------------------------------------------------------------------------------
Добавлено: 24.09.2015
Другие материалы по этой песне:
  • Аккорды и текст

Страница создана 24.09.2015
http://primanota.ru/johann-sebastian-bach/praeludium-abridged-chords.htm
Привет, Гость.
Предлагаем пройти революционный курс по гитаре.
Подарок от PrimaNota.Ru, забирай!