PrimaNota.ru - самый крупный в мире бесплатный архив песенных текстов, аккордов, табулатур и нот


Бах Иоганн Себастьян - Menuet In G - таба, видео

Регистрация Запомнить меня
Войти через:  Facebook Google Twitter Vk Yandex Mail.ru

Бах Иоганн Себастьян - Menuet In G - таба, видео

Печатать
Просмотров: 189
                             Menuet in G

 |  1 + 2 + 3 +  |  1 + 2 + 3 +  |  1 + 2 + 3 +  |  1 + 2 + 3 +  |

  Part One                                                                
e|---------------|---------------|--0-------0-2--|--3------------|
B|--3-------0-1--|--3------------|------1-3------|---------------|
G|o-----0-2------|------0---0----|---------------|------0---0----|
D|o--------------|---------------|---------------|---------------|
A|---------------|--2------------|--3------------|--2------------|
E|--3------------|---------------|---------------|---------------|
                                                                
e|---------------|---------------|---------------|---------------|
B|--1---3-1-0----|--0---1-0------|----------0----|---------------|
G|------------2--|----------2-0--|------0-2---0--|--2------------|
D|---------------|---------------|--4------------|--0---0--------|
A|--0------------|---------------|--5---2--------|--------3-2-0--|
E|---------------|--3------------|----------3----|---------------|
                                                                
e|---------------|---------------|--0-------0-2--|--3------------|
B|--3-------0-1--|--3------------|------1-3------|---------------|
G|------0-2------|------0---0----|---------------|------0---0----|
D|---------------|---------------|---------------|---------------|
A|--2------------|------2--------|--3------------|--2---3-2-0----|
E|---------------|--3-------3----|---------------|------------3--|
                                                              Fine
e|---------------|---------------|---------------|---------------|
B|--1---3-1-0----|--0---1-0------|------0--------|---------------|
G|------------2--|----------2-0--|--2-----2-0----|--0-----------o|
D|---------------|---------------|------0-----4--|------0-------o|
A|--0------------|----------2----|--3-------5----|---------------|
E|----------2----|--3------------|---------------|--3-------3----|

  Part Two                                                             
e|--7-----5-7----|--5-----0-2----|--3---0-2-3----|---------------|
B|--8---8-----8--|------3-----3--|------------3--|--2---0-2------|
G|o--------------|--2------------|------0--------|----------2----|
D|o--------------|---------------|--2-------2----|---------------|
A|---------------|---------------|---------------|--0-------0----|
E|---------------|---------------|---------------|---------------|
                                                                
e|----------0-2--|--3---2---0----|--2------------|---------------|
B|----0-2-3------|---------------|----------2----|--3------------|
G|--2------------|---------------|------2--------|---------------|
D|---------------|------0--------|--0------------|--0---0--------|
A|--0------------|--2-------4----|----------0----|----------3----|
E|---------------|---------------|------2--------|---------------|
                                                                
e|---------------|--0------------|---------------|---------------|
B|--3------------|---------------|--3---1---0----|---------------|
G|------0---0----|------0---0----|---------------|--2-0---0-2----|
D|--------4------|--------4------|---------------|--0---4--------|
A|--2-------2----|--3-------3----|--2---0--------|---------------|
E|---------------|---------------|----------3----|---------------|
                                                        D.C. al Fine
e|---------------|---------------|---------------|---------------|
B|------------0--|--1---0--------|--0------------|---------------|
G|--------0-2----|----------2----|------0--------|--0-----------o|
D|--0-2-4--------|---------------|----------4----|--5---0-------o|
A|---------------|---------------|------2---5----|---------------|
E|----------2----|--0---3---2----|--3------------|----------3----|
Добавлено: 15.07.2012
Другие материалы по этой песне:
  • Аккорды и текст

Страница создана 15.07.2012
http://primanota.ru/johann-sebastian-bach/menuet-in-g-chords.htm
Привет, Гость.
Предлагаем пройти революционный курс по гитаре.
Подарок от PrimaNota.Ru, забирай!