PrimaNota.ru - самый крупный в мире бесплатный архив песенных текстов, аккордов, табулатур и нот


Бах Иоганн Себастьян - Little Prelude In C Major - таба, видео

Регистрация Запомнить меня
Войти через:  Facebook Google Twitter Vk Yandex Mail.ru

Бах Иоганн Себастьян - Little Prelude In C Major - таба, видео

Печатать
Просмотров: 433
----------------------------------------------------------------------------
             Little Prelude in C Major  - Johann Sebastian Bach
----------------------------------------------------------------------------


Tabbed by: Dave S. 
Email: prime-prine@hotmail.com

Tuning: Down 1 Step (Drop C)



D||--------------------------|--------------------------|
A||--------------------------|--0--------0--------3--0--|
F||-----------2--------5--2--|--------0-----0-----------|
C||-----0--4-----4--0--------|-----0-----------0--------|
G||--------------------------|--------------------------|
C||--0-----------------------|--0-----------------------|

  
-----------0--------3--0--|--2-----------------2-----|
--2-----2-----2-----------|--3-----------------3-----|
-----2-----------2--------|--------------------------|
--------------------------|--------------------------|
--------------------------|-----------0--------------|
--0-----------------------|-----0--4-----4--0-----4--|

  
--0-----------------0-----|--0--------0-------2--|------------------------|
--0--------0--------0-----|--------2-----2----2--|-3-----------------3----|
--7-----------------7-----|-----2--------2-------|-------------------4----|
--------6-----6-----------|----------------------|-------0--4--0----------|
-----7-----------7--------|--0----------------0--|----2-----------2--0----|
--6--------------------6--|----------------------|----------------------4-|

  
--------------------------|-----------0--------3--0--|
-----------0-----------0--|--2-----2-----2-----------|
--------------------7-----|-----2-----------2--------|
--------6-----6-----------|--------------------------|
-----7-----------7--------|--0-----------0-----------|
--6-----------------6-----|--------------------------|

  
--2--------2--------5--2--|--4--------3--------7--4--|
--------3-----3-----------|--------3-----3--0--------|
-----2-----------2--------|-----4--------------------|
--------------------------|--------------------------|
--0-----------0-----------|--0-----------0-----------|
--------------------------|--------------------------|

   
--5-----------------------|--------5--10--5-----8--5--|
--------------------2-----|-----7------------7--------|
--------------------0-----|--7------------------------|
-----------2-----------2--|--0------------0-----------|
-----0--4-----4--0--------|---------------------------|
--------------------------|---------------------------|

  
--7-5-3-2-0-----------------0-2-3-|--5---------------------|
------------3-2-0-2---0-2-3-------|--------3----------2----|
--0-----------------2-------------|--------2----------0----|
----------------------------------|-----2--4--0-------2----|
------------------0---------------|--------------0----0----|
----------------------------------|------------------------|

               
-------------------||
--3----------------||
--2----------------||
--4----------------||
--0----------------||
--0----------------||

| /  slide up
| \  slide down
| h  hammer-on
| p  pull-off
| ~  vibrato
| +  harmonic
| x  Mute note
===========================================================================
Добавлено: 16.04.2012
Другие материалы по этой песне:

Страница создана 16.04.2012
http://primanota.ru/johann-sebastian-bach/little-prelude-in-c-major-chords.htm
Привет, Гость.
Предлагаем пройти революционный курс по гитаре.
Подарок от PrimaNota.Ru, забирай!