PrimaNota.ru - самый крупный в мире бесплатный архив песенных текстов, аккордов, табулатур и нот


Бах Иоганн Себастьян - Little Fugue In G Minor - таба, видео

Регистрация Запомнить меня
Войти через:  Facebook Google Twitter Vk Yandex Mail.ru

Бах Иоганн Себастьян - Little Fugue In G Minor - таба, видео

Печатать
Просмотров: 105
"Little" Fugue in G minor - Johann Sebastian Bach

The song normally has 4 hands playing different melodies on a pipe organ.
This track corresponds to one of the treble hands in the original score,
which carries the main melody for most of the song

Based off of the Notetracker's cover

Tabbed by Farzad Saif

Tuning: Standard - EADGBe

e|---------------------------------------------------------------------|
B|---------------------------------------------------------------------|
G|-----7==-------------------------------------------------------------|
D|--5==---7b8~~7--5--8--7--5--4--7\-----5-----5h7-----7h8--7--5--7-----|
A|-----------------------------------5~~---5-------5----------------5--|
E|---------------------------------------------------------------------|

 
e|---------------------------------------------------------------------|
B|-------------------------------------------------------------------5-|
G|--------------------------------7-5----------------------------5-7---|
D|--5-----5-7------7-8--7-5-7----------8-7-5-8-7-5-4-7-5---5-7-8-------|
A|-----5--------5--------------5-------------------------5-------------|
E|---------------------------------------------------------------------|
 
                                        Tr4
e|----------------------------------------------------------------5---5-6-5-------|
B|--6-5---6-5-----5----------5--6-8-6-8-8^10^8^10^8^10^8^10^8-6h8---8-------8-6-5-|
G|------7-----7-6---7~~---7-------------------------------------------------------|
D|---------------------7----------------------------------------------------------|
A|--------------------------------------------------------------------------------|
E|--------------------------------------------------------------------------------|

    A       A       A       A       A       A       A       A       
e|----5---5---5---5---5---5---5---5-----------------5---------------------------|
B|--6---8-------8-------8-------8---6-------8---------------8----------6-----5--|
G|----------6-------7-------6---------7-6-7---7-6-7---7-6-7---7-6-7-------------|
D|------------------------------------------------------------------7-----5-----|
A|------------------------------------------------------------------------------|
E|------------------------------------------------------------------------------|

 
e|-----------------5~~---------3---------------5-3-5---3-2-3---2-p0-2-2h3~~~|
B|-----------6--4-----4h6p4\3-----3--------3--------------------------------|
G|--------7--------------------------5-3-5---5-------3-------2--------------|
D|-----7--------------------------------------------------------------------|
A|--8-----------------------------------------------------------------------|
E|--------------------------------------------------------------------------|


Secondary treble organ hand/rhythm guitar player and
primary bass organ hand/main guitar bass player carries the main melody for a few measures

                            PM|-|
e|----------------------------------------------------------------------5-6-5-----------|
B|-------------------------------------------------------------------5--------8-6-5-----|
G|-------------------------------------------------------------7--6-----------------7-6-|
D|--------------5-4-5--5-4-5--5-4-5--5-4-5----------5-7-8-5-7---------------------------|
A|--5--3--5--3==---------------------------5~~3~~-5-------------------------------------|
E|--------------------------------------------------------------------------------------|

    P          Tr48
e|-----6==---5=5^6^5^6^5^6^5^6^5^6^5^6^5^6^5^6^5^6^5^6^5^6^5^6^5^6^5^6^5^6^5^6^5^|
B|--------5~~--------------------------------------------------------------------|
G|--7----------------------------------------------------------------------------|
D|-------------------------------------------------------------------------------|
A|-------------------------------------------------------------------------------|
E|-------------------------------------------------------------------------------|


e|--6^5^6^5^6^5^6^5^6^5^6^5^6^5^6^5^6^5^6^5^6^5^6^5^6^5^6^5^6^5^6^5^6^5^6^5^6^5^6^5^|
B|----------------------------------------------------------------------------------|
G|----------------------------------------------------------------------------------|
D|----------------------------------------------------------------------------------|
A|----------------------------------------------------------------------------------|
E|----------------------------------------------------------------------------------|


e|--6^5^6^5^6^5^6^5^6^5^6^5^6^5^6^5^6^5^6^5^6^5^6^5---5-6-5-------|
B|--------------------------------------------------8-------8-6-5-|
G|----------------------------------------------------------------|
D|----------------------------------------------------------------|
A|----------------------------------------------------------------|
E|----------------------------------------------------------------|


e|---------------------------------------------------------------------------------------|
B|--6~~-----8--6-h8p6\4~~----6--4-h6p4\3~~8-7-8------------------------------------------|
G|-----6/7---------------4/5--------------------5~~----5---------------------------------|
D|-------------------------------------------------8-7---8-7-5-8-7-5-4-7-5-----4-5---5-7-|
A|-------------------------------------------------------------------------5-7-----5-----|
E|---------------------------------------------------------------------------------------|


e|-----------------------------------------------------------------------------|
B|-----------------------------------------------------------------------------|
G|--------5-7---7-5------------------------------------------------------------|
D|--8-5-8-----7-----8~~7--5--8--7--5--4--7\-----5-----5/7-----7h8--7--5--7~~---|
A|-------------------------------------------5~~---5-------5----------------5--|
E|-----------------------------------------------------------------------------|

                                                           A
e|-------------------------------------------------------------------|
B|-------------------------------------------------------------------|
G|-----------------------------7-5---------------------5-7-8---------|
D|--5-----5-7-----7-8--7-5-7-------8-7-5-8-7-5-4-7-5-8-------8-7-5-4-|
A|-----5-------5-------------5---------------------------------------|
E|-------------------------------------------------------------------|

          A               A
e|------------------------------------------------------------------------------------------------|
B|--------------------------------------------------------6-8-6-----6-----------------------------|
G|------5-7---------------5-----------------7-5-----5-7-8-------8-7---8-7-5-----5-----------5---5-|
D|--7-8-----7-5-----5-7-8---5---------5-7-8-----8-7-------------------------8-7---8---5-7-8---8---|
A|--------------8-6-----------8-6-5-8-----------------------------------------------8-------------|
E|------------------------------------------------------------------------------------------------|

            Tr3         Gr|-----|               A         A         A         A
e|--------------------------------------------------------------------------------------|
B|----5---5-5^6^5^6^5^6^5---5-6---6h8-8-6-----------------------------------------------|
G|--7---7-----------------7-----8---------8-7-5-7-10-8-10---10-8-10---10-8-10---10-8-10-|
D|--------------------------------------------------------7---------8---------7---------|
A|--------------------------------------------------------------------------------------|
E|--------------------------------------------------------------------------------------|

    A       A       A        A                A                 A
e|-----------------------------------------------------------------------|
B|-----------------------------------------------------------------------|
G|--7-------8-------10-------8------------7---8-7----8-7----7-8-7------7-|
D|----8-7-8---8-7-8----8-7-8---8-7-8-8-10---8-----10-----10-------10-8---|
A|-----------------------------------------------------------------------|
E|-----------------------------------------------------------------------|

              A                  A
e|-----------------------------------------------------------------------------------------|
B|-----------------------------------------------------------------------------------------|
G|----------7--------------------------------10~~----------8~~-------7~~-------5-----------|
D|--10-8-10---10-8-7-10-8-7-8-10-8-7----8-7~~-----6h8p6\5------5-------------5---8-7-5-----|
A|-----------------------------------10---------------------------8------8-6-----------8-6-|
E|-----------------------------------------------------------------------------------------|

  PM|-----------------|                     Tr3         Gr|---|          A  A
e|-----------------------------------------------------------------------------|
B|------------------------------------5---5-5^6^5^6^5^6^5---5-6-5-6-8-6--6--6--|
G|--------------5-------------5---5-7---7-----------------7--------------------|
D|--------5-7-8---7-8---5-7-8---8----------------------------------------------|
A|--5-6-8-------------8--------------------------------------------------------|
E|-----------------------------------------------------------------------------|

    Tr33
e|--------------------------------------------------------------------------------------------|
B|--6^8^6^8^6^8^6^8^6^8^6^8^6^8^6^8^6^8^6^8^6^8^6^8^6^8^6^8^6^8^6^8^6^8^6^8^6^8^6^8^6^8^6^8^6^|
G|--------------------------------------------------------------------------------------------|
D|--------------------------------------------------------------------------------------------|
A|--------------------------------------------------------------------------------------------|
E|--------------------------------------------------------------------------------------------|


e|-------------------------------------------------------5-6-5-6-8-6-5\3-------------------|
B|--8^6^8^6^8^6^8^6^8^6^8^6^8^6^8^6^8^6^8^6^8^6---6-8--------------------6-4-3-4-6-4-3-----|
G|----------------------------------------------8-----5~~------------------------------5-3-|
D|-----------------------------------------------------------------------------------------|
A|-----------------------------------------------------------------------------------------|
E|-----------------------------------------------------------------------------------------|


e|--5-3-5-6-5-3---------------------3-1-3-4-3-1---------------------1==-4-p3------|
B|--------------6-4-3\1-3-4-3-1-----------------4-3-1-0-1-3-1-3-4-1----------6-4~~|
G|------------------------------3-2-----------------------------------------------|
D|--------------------------------------------------------------------------------|
A|--------------------------------------------------------------------------------|
E|--------------------------------------------------------------------------------|

                 Arp G|-----|
e|----------3-4------------------------------------------------------------------------------|
B|----3-4-6-----6-----3------------8==-------------------------------------------------------|
G|--5-------------4-5---4-----4/5==---8~~7--5--8--7--5--4--7\----5-----6/7----7h8--7-5-7~~---|
D|------------------------5~~---------------------------------5~~---5-------5-------------5--|
A|-------------------------------------------------------------------------------------------|
E|-------------------------------------------------------------------------------------------|

                    PM|   PM|
e|--------------------------------------------------------------------------------|
B|----------------------------8-6-------------------8-6-8-------------------------|
G|--5-----5-7~~--7-8--7-5-7-------8-7-5-8-7-5-4-7-5-------5-8-------5---5-----5-8-|
D|-----5-------5------------5---------------------------------5-8-7---7-----7-----|
A|------------------------------------------------------------------------8-------|
E|--------------------------------------------------------------------------------|

            PM|
e|-----------------------------------------------------------------------------------|
B|----6---6--------------------------------------------------------------------------|
G|--7---7-----7-------------------7-5-8-5-8---5-------------------5------------------|
D|----------8-----7-5-8-5-8---5-8-----------7-----5-4-7-4-7---4-7---8==5==7\-4==4h5~~|
A|--------------8-----------6-------------------7-----------5------------------------|
E|-----------------------------------------------------------------------------------|


e|----------------------------------------------------------5--------------5--5b6==r5-5~~------|
B|--------------------------6---------6-----8-----6-5-8-6-5---5---8-7~~7h8---------------8~~7==|
G|----------7-----5---7-5-----5---8-7---8-7---7------------------------------------------------|
D|--5-8-7-5---7-----8-----8---------------------5---------------7------------------------------|
A|--------------5---------------8--------------------------------------------------------------|
E|---------------------------------------------------------------------------------------------|


                                                A       A       A       A
e|-----------5--6-5---5---------5-----------------------------------------------|
B|--8~~---8---------8---7-8-7-8---8-7-5-----------------------------------------|
G|-----7--------------------------------7-5-------7-5-7---7-5-7---7-5-7---7-5-7-|
D|------------------------------------------8-7-8-------4-------5-------4-------|
A|------------------------------------------------------------------------------|
E|------------------------------------------------------------------------------|

    A       A       A       A
e|-------------------------------------------------------|
B|---------------------------------------8=---7==X-8~~~--|
G|--3-------5-------7-------5----------------------------|
D|----5-4-5---5-4-5---5-4-5---5-4-5-6/8=---7==-----------|
A|-------------------------------------------------------|
E|-------------------------------------------------------|




Key

| / - Slide up
| \ - Slide down
When no number is shown after the \ it is an unpitched slide
| [initial note]b[final note] - bend up
| [bent note]r[original note] - return bent note to original position
| = - Sustain
| X - Frethand mute
| h - Hammer-on
| p - Pull-off
| A - Accented note
| ~ - Vibrato
| P - Pinch harmonic
| PM - Palm mute
| Tr[number of cycles] - Trill
| Arp [chord] - Arpeggiate the chord
| Gr - grace notes

Добавлено: 24.09.2015
Другие материалы по этой песне:

Страница создана 19.05.2012
http://primanota.ru/johann-sebastian-bach/little-fugue-in-g-minor-chords.htm
Привет, Гость.
Предлагаем пройти революционный курс по гитаре.
Подарок от PrimaNota.Ru, забирай!