PrimaNota.ru - самый крупный в мире бесплатный архив песенных текстов, аккордов, табулатур и нот


Бах Иоганн Себастьян - Invention 08 - таба, видео

Регистрация Запомнить меня
Войти через:  Facebook Google Twitter Vk Yandex Mail.ru

Бах Иоганн Себастьян - Invention 08 - таба, видео

Печатать
Просмотров: 322
-------------------------------------------------------------------------------
                             BACH - Invention #8: F Maj
-------------------------------------------------------------------------------
Tabbed/arranged by: ryan
Email:

This is only the first section and only the right hand but whatever here you go.
I arranged it on guitar by myself so i dont know if the fingerings good or what.
and yea i figured out the chords and put them.  i dont know why.

Tuning: eadgbe

    F                                F                F    Fsus4  F   Fsus4 
e|-------------------------------------------------------8----8-----8----8---|
B|------------6--5-3---3------------------------6-----10---11----10---11-----|
G|----2---5----------5---5-3-2-3-2--------2-5-2---5--------------------------|
D|--3---3---3----------------------5-3--3------------------------------------|
A|---------------------------------------------------------------------------|
E|---------------------------------------------------------------------------|

   F    Fsus4  F   Fadd9 F Fadd9 F  Fadd9 Dm add2              G
e|----8----8-----5---5---5---5----5---5--------------------------------------|
B|-10---11-----6---8---6---8----6---8----3-6-5-6-3-6-5-6-3-6-5----3---6-3----|
G|-------------------------------------------------------------4----4--------|
D|---------------------------------------------------------------5-----------|
A|---------------------------------------------------------------------------|
E|---------------------------------------------------------------------------|

                                C
e|--3-5-3--------------------------------------------------------------------|
B|--------6-5-6-5-3---3-------3-1-0-1-0--------------------------------------|
G|------------------5---5-3-2-----------2-0-2-0------------------------------|
D|----------------------------------------------3-2-3-2-0--------------------|
A|--------------------------------------------------------3------------------|
E|---------------------------------------------------------------------------|

   F           C/E  G/D  C
e|---------------------------------------------------------------------------|
B|-1p0h1------1---1---0--1---------------------------------------------------|
G|---------------------------------------------------------------------------|
D|-------2--3---2---0--------------------------------------------------------|
A|-----------------------1---------------------------------------------------|
E|---------------------------------------------------------------------------|

| /  slide up
| \  slide down
| h  hammer-on
| p  pull-off
| ~  vibrato
| +  harmonic
| x  Mute note
===============================================================================
Добавлено: 10.04.2012
Другие материалы по этой песне:

Страница создана 10.04.2012
http://primanota.ru/johann-sebastian-bach/invention-08-chords.htm
Привет, Гость.
Предлагаем пройти революционный курс по гитаре.
Подарок от PrimaNota.Ru, забирай!