PrimaNota.ru - самый крупный в мире бесплатный архив песенных текстов, аккордов, табулатур и нот


Бах Иоганн Себастьян - Ich Ruf Zu Dir Herr Jesu Christ - Bwv 639 - таба, видео

Регистрация Запомнить меня
Войти через:  Facebook Google Twitter Vk Yandex Mail.ru

Бах Иоганн Себастьян - Ich Ruf Zu Dir Herr Jesu Christ - Bwv 639 - таба, видео

Печатать
Просмотров: 483
 
Tuning : E A D G B E    Time Signature: 4/4

 |               |               |               |                
|3-------------------------------1-------------------------------|
|--------1---0---4-------------------------------4-----------3---|
|----0---------------0-------------------1---0-----------0-------|
|1-----------------------1-------0---3---------------1-------3---|
|3-------3-------3-------3---3---3-------2-------3-------3-------|
|----------------------------------------------------------------|

 |               |               |               |                
|--------------------1-------1---3-1-3-3-3-31-1--3---------------|
|1-----------3---4---0---4---4---3---1---0---4---0---------------|
|------------0---------------------------------------0-----------|
|1-------1-----------------------------------------------0---3---|
|3---3---1-------------------------------------------------------|
|----------------4-------4-------4-------4-------3-------3-------|

 |               |               |               |                
|3-----------4---6---------------4---3---------------------------|
|------------4---3-------4---3---4-----------6---4-----------4---|
|--------5-----------3---------------3---5---------------5-------|
|----5-----------5-------5-------5---------------5---6-----------|
|6-------3-------------------------------------------------------|
|----------------3-------3-------3-------3-------3-------3-------|

 |               |               |               |                
|1-------3-------4---------------1---6-8-------------------------|
|------------2---------------1-----------911-8---8---------------|
|----1---0---------------1-----------8---7---------------4-------|
|3---------------3---3-----------0-------------------5-------3---|
|----------------------------------------------------------------|
|1-------0-------1-----------------------8-------7-------3-------|

 |               |               |               |                
|3-------------------------------1-------------------------------|
|--------1---0---4-------------------------------4-----------3---|
|----0---------------0-------------------1---0-----------0-------|
|1-----------------------1-------0---3---------------1-------3---|
|3-------3-------3-------3---3---3-------2-------3-------3-------|
|----------------------------------------------------------------|

 |               |               |               |                
|--------------------1-------1---3-1-3-3-3-3-----3---------------|
|1-----------3---4---0---4---4---3---1---0---1---0---------------|
|------------0---------------------------------------0-----------|
|1-------1-----------------------------------------------0---3---|
|3---3---1-------------------------------------------------------|
|----------------4-------4-------4-------4-------3-------3-------|

 |               |               |               |                
|3-----------4---6---------------4---3---------------------------|
|------------4---3-------4---3---4-----------6---4-----------4---|
|--------5-----------3---------------3---5---------------5-------|
|----5-----------5-------5-------5---------------5---6-----------|
|6-------3-------------------------------------------------------|
|----------------3-------3-------3-------3-------3-------3-------|

 |               |               |               |                
|1-------3-------4---------------1---6-8-6-6---------------------|
|------------2---------------1---------------8---8---------------|
|----1---0---------------1-----------8---7-------------------5---|
|3---------------3---3-----------0-------------------------------|
|----------------------------------------------------8---6-------|
|1-------0-------1-----------------------8-------7---------------|

 |               |               |               |                
|6---------------8---------------6-------6-----------------------|
|------------------------------------------8-9---8-------6-------|
|----------------------------------------8-------------------7---|
|----6-------5-------5-------6-------6---------------8---6-------|
|5-------6-------6-------8-------8---------------6---------------|
|3-------3-------4-------4---------------6---------------6-------|

 |               |               |               |                
|--------1-------3---------------1-------------------------------|
|4---1---4---3---4-----------2---1---------------4---------------|
|0-------------------3-----------------------1---0-------0---3---|
|------------------------1-----------1---0-------1---1---1-------|
|3---------------1-----------------------1-----------------------|
|--------4---------------3-------4-------------------------------|

 |               |               |               |                
|3---------------3---------------3-----------0---1---------------|
|3-----------3-----------1---3-------1---------------3---4---3---|
|----0---------------0-------------------3-------1---------------|
|--------3-------2-----------------------------------------------|
|2-------2-------3-------3-------3-------3-------3-------2-------|
|----------------------------------------------------------------|

 |               |               |               |                
|----------------------------------------------------------------|
|4---1---3---1---3---1---3---1---0---------------1-------1---0---|
|0---------------1-----------------------1---0-------0-----------|
|------------------------0-----------3-----------1---------------|
|3---------------------------------------------------------------|
|--------4-------1---------------3-------3-------4-------4-------|

 |               |               |               |                
|----------------------------------------------------------------|
|----------------4---1---3---1---3---1---3---1---1---1---3---1---|
|----0-------------------------------------------0---------------|
|--------1-------3---------------3-------------------------------|
|------------3---0-------0-------1-------1-----------------------|
|4-------4---------------------------------------0-------0-------|

 |               |               |               |                
|----------------------------------------------------------------|
|----------------------------------------------------------------|
|2-----------2---3---0---3---1-----------1---0-----------0-------|
|----0---4-------0---------------0---3-----------1---1---1---3---|
|------------------------------------------------1---------------|
|2-------2-------3-------3-------1-------1-----------------------|

 |               |               |               |                
|------------------------------------------------1---------------|
|----------------4---------------4-------------------------------|
|3-----------1-----------1---0-----------0-----------------------|
|0---3---0-----------1---------------1-------3-------1---3---1---|
|--------1-------3-------3-------3-------1-------3-------0-------|
|----------------------------------------------------------------|

 |               |               |               |                
|1---------------3-------------------1---3---1---0---------------|
|----------------------------4---------------------------2-------|
|--------1---0-------0---3-------3-------------------3-----------|
|0---3-----------1-------1-----------------------------------2---|
|1-------1-----------------------4-------4-------3-------3-------|
|----------------------------------------------------------------|

 |               |               |               |                
|4---------------3---------------1-------------------------------|
|----3-------1-----------1-----------------------4---------------|
|--------------------4-------3-------1---3---------------1---0---|
|3-------1-------0-------1-------1-----------6-------5-----------|
|--------------------------------3-------5-------5-------3-------|
|1-------1-------1-------------------------------6---------------|

 |               |               |               |                
|---------------------------------------------------------------||
|1---1---3---3---4---1---3---1---3---------------1-------1------||
|----------------2-------------------1---------------0----------||
|3---------------------------------------3---0---2--------------||
|------------------------------------------------3--------------||
|4-------4-------2-------2-------3-------3----------------------||

Добавлено: 24.02.2012
Другие материалы по этой песне:
  • Аккорды и текст

Страница создана 24.02.2012
http://primanota.ru/johann-sebastian-bach/ich-ruf-zu-dir-herr-jesu-christ-bwv-639-chords.htm
Привет, Гость.
Предлагаем пройти революционный курс по гитаре.
Подарок от PrimaNota.Ru, забирай!