PrimaNota.ru - самый крупный в мире бесплатный архив песенных текстов, аккордов, табулатур и нот


Бах Иоганн Себастьян - Gigue From The Lute Suite Bvw 996 In E Minor - таба, видео

Регистрация Запомнить меня
Войти через:  Facebook Google Twitter Vk Yandex Mail.ru

Бах Иоганн Себастьян - Gigue From The Lute Suite Bvw 996 In E Minor - таба, видео

Печатать
Просмотров: 165
Gigue from the Lute Suite BVW 996 in E Minor - J.S. Bach



Part A -- play twice

  |     |     |     |     |     |     |     |     |     |     |     |     
E -----------------|-----------------|------------0----|-----------------|
B -----------------|-----------------|---0-----------0-|1----------------|
G -----------------|-----------------|0-----0----------|---4--2--0-------|
D ---2--0----------|------2-----4----|---------2-------|------------4--2-|
A ---------3--2--0-|-----------------|-----------------|0-----2-----3----|
E -----------------|3-----------2----|0-----2-----3----|-----------------|

     2  0  3  2  0  3     2     4     0     0  2  0  0  1  4  3  0  4  1
                                1     0     1     3     0     2     2

  |     |     |     |     |     |     |     |     |     |     |     |     
E ---2--------7----|-----------------|-----------------|-----------------|
B ------4--0-----7-|8--7--5--------0-|1--3--1--0-------|---0--1--0-------|
G -----------------|---------7--5----|2--4--2--0--2--0-|2--0--2--0--2--0-|
D 1----------------|------4-----5----|------------4--2-|4-----------4--2-|
A 2-----4-----6----|7----------------|-----------------|-----------------|
E -----------------|-----------------|-----------------|-----------------|

  1  4  3  0  4  3__3  2  2  4  4  0  1  3  1  0  2  0  2  0  1  0  2  0
  2     2     1_____1     1     3     2  4  2  0  4  2  4  0  2  0  4  2

                                     BII....
  |     |     |     |     |     |     |     |     |     |     |     |     
E -----------------|-----------------|-----------------|-----------------|
B -----------------|-----------------|-----------------|-----------------|
G -----------------|0-----------1----|2-----------3----|4--5--4--2--0----|
D 4-----------4----|2-----------2----|---2--------4----|---------------4-|
A ---3--2--0-------|---2-----------2-|3-----3--0-----4-|5-----4-----6----|
E ------------3--2-|0-----3--0-------|-----------------|-----------------|

  4  3  2  0  4  2  3  2  4  0  1  2  1  1     0  2_____2  4  4  1  0  1
              3                 3     2     2     4  3__3     3     3

                                     BII                      BII....
  |     |     |     |     |     |     |     |     |     |     |     |     
E ------0-----2----|3--5--3--2--0----|------------0----|2--3--2----------|
B -----------------|---------------3-|2-----3----------|---------5--3----|
G 0-----0----------|-----------------|2--4--2----------|---------------5-|
D ---7-----4--2--1-|2-----4-----5----|---------5--4--2-|0-----2-----4----|
A 7----------------|-----------------|-----------------|-----------------|
E -----------------|-----------------|-----------------|-----------------|

  0  4  0  4  2  1  2  4  2  1  0  1  1  3  2     0      2 3  1  4  2  4
  3     0     1     1     3     3     1     1  4  3  1   0    1     3

                                                       BII
  |     |     |     |     |     |     |     |     |     |     |     |     
E ------------3----|0----------------|---0--------5----|2----------------|
B 0--3-----------3-|------------1----|---------------5-|3-----------3----|
G 0-----4----------|---0-----------0-|------6----------|---2-----------2-|
D ---------5-------|------2----------|7--------7-------|0-----4----------|
A ------------2----|3--------3-------|------------4----|---------5-------|
E -----------------|-----------------|-----------------|-----------------|

  0  2  3  4  4  3  0  0  2  3  1  0  4  0  3  4  4  3  1  1  3  4  2  1
  0           1     3                             1     2

  |     |     |     |     |     |     |     |     |     |     |     |     
E ------------3----|0----------------|-----------------|-----------------|
B ---3-----------3-|---3--1----------|-----------------|0-----1-----3----|
G 4-----4--0-------|---------4--2--0-|------0-----2----|---2--0----------|
D -----------------|------0-----2----|4----------------|---------3--2--0-|
A ------0-----2----|3----------------|5--7--5--3--2--0-|-----------------|
E -----------------|-----------------|-----------------|3----------------|

  3  2  3  0  4  3  0  4  1  4  2  0  1     0     2     0  2  1  3  4  0
        0     1     3     0     1     2  4  2  3  1  0  3     0     2

  |     |     |     |     |     |     |     |     |     |     |     |     
E 0--3--8--7--5----|-----------------|-----------------|-----------------|
B ---------------8-|7--8--7--5--3----|0-----------0----|-----------------|
G -----------------|---------------5-|0-----------0----|2-----------2----|
D ------0----------|0-----------4----|------------2----|---2--------4----|
A 3-----------7----|------7----------|---2-----------2-|3-----3--0-----5-|
E -----------------|-----------------|------3--0-------|-----------------|

  0  4__4  3  1  4  3  4  3  1  1  4  0  2  3  0  0     2  1  3  0  1  4
  3     0     2     0     2     2     0           3  2  3           3

  |     |     |     |     |     |     |     |     |     |     |     |     
E -----------------|-----------------|---2--0----------|3--2--0----------|
B ---0-------------|1----------------|---------4--2--0-|---------3-------|
G 0-----2----------|---4--2--0-------|-----------------|------------5--4-|
D ---------5--4--2-|------------4--2-|1-----------1----|2-----4-----5----|
A -----------------|0-----2-----3----|2-----4----------|-----------------|
E 3-----------3----|-----------------|-----------------|-----------------|

  0  0  1  4  3  1  1  4  3  0  2  1  1  4  0  3  3  0  4  2  0  2  4  2__
  2           2     0     2     4     2_____2     1     1     3     3_____

  BII...............                                   BII........
  |     |     |     |     |     |     |     |     |     |     |     |     
E ------------2----|-----------------|---------------2-|3----------------|
B ---2-----------2-|3-----------4----|5--4--5--4--5----|------2--------0-|
G 3-----3-----3----|4----------(4)---(4)(2)------------|4-------4---3----|
D 4--------4-------|---4--0-------4--|5--4--5--4--5--4-|2-----4----------|
A -----------------|---------2-------|-----------------|-----------------|
E -----------------|-----------------|-----------------|------------2----|

__2  1  2  3  1  1  2  3  0  1  4 3   4__4__4__4__4  1  2    1      2  0
__3           2     4                 3__3__3__3__3__3  3       4  
                                                        1    3      1


  |     |     |     |     |     |     |     |     |     |     |     |     
E -----------------|------------0----|---0--2--0-------|-------------------|
B 0-----------0----|---------0-------|0-----------4--2-|--4----------------|
G -----------------|0-----0--------3-|---0--2--0-------|-(4)---------------|
D ---4--1--4-----4-|---2-------------|------------4--2-|--4----------------|
A 2-----2-----2----|2-----2-----2----|2----------------|--2----------------|
E -----------------|-----------------|-----------------|-------------------|
 
  0  4  1  4  0  4  0  3  0  0  0  4  0  0  4  0  4  1    4
  2     2     2     2     2     2     2  0  3  0  3  1    3
                                                          1 


PART B - play twice
                                                 
                                                                   BIII
  |     |     |     |     |     |     |     |     |     |     |     |     
E -----------------|-----------------|---0--2--3--5--7-|8-----7-----3----|
B -----------------|-----------------|-----------------|-----------------|
G -----------------|0----------------|-----------------|------------4--5-|
D ---------1--2--4-|------------4----|2----------------|---4--5--7-------|
A ---2--4----------|------------0--2-|3----------------|0----------------|
E -----------------|---0--2--3-------|------------7----|-----------------|

     2  4  1  2  4  0  0  1  2  4  1  1  0  1  2  1  4  4     4     1
                                0     2           3     0  1  1  3  2  3



 BV.................           BII
  |     |     |     |     |     |     |     |     |     |     |     |     
E 5----------------|---------2--3--5-|7-----------0--2-|3-----------3----|
B ---8--7--5-------|---3--5----------|---0--1--3-------|------0--------1-|
G 7-----------7--5-|4-----------2----|0----------------|---0-----0--2----|
D -----------------|-----------------|------------4----|2----------------|
A -----------------|-----------------|-----------------|-----------------|
E -----------------|-----------------|-----------------|-----------------|

  1  4  4  1  3  1  3  2  4  1  2  4  4  0  1  4  0  1  4  0  0  0  4  1
  3                             1     0           3     2           2

                                                       BII........
  |     |     |     |     |     |     |     |     |     |     |     |     
E 2-----------2----|0-----------0----|-----------------|-----------------|
B ------3--------0-|-----------------|4-----------3----|2----------------|
G ---2-----2--0----|------0--------2-|------4--------1-|------2-----5----|
D 0----------------|---2-----2--4----|---4-----4--2----|---2-----2-----4-|
A -----------------|3----------------|2----------------|0-----------5----|
E -----------------|-----------------|-----------------|-----------------|

  3  2  4  2  3  0  0  1  0  2  0  1  4  2  3  2  4  1  1  1  1  1  4  2
  0           0     2           3     1           2     0           3


  |     |     |     |     |     |     |     |     |     |     |     |     
E -----------------|0-----0--2--3--5-|7----------------|0----------------|
B 0--------0--1--3-|---3-------------|------0--1--3----|-----------------|
G ---0--2----------|-----------------|0--2--0--2--4----|0-----2--------0-|
D -----------------|---------0--2--4-|---4-------------|------------4----|
A ------------0--2-|3--2--3----------|-----------------|3-----0--3--5----|
E 3--------3-------|-----------------|---------------3-|---0-------------|

  0  0  2  0  1  3  0  4  0  2  2  4  4  1  0  1__1     0     2     2  0
  3        3  0  2  3  2  3  0  1  3  0  3  0  2__2  1  0        3  3 
                                                        3  0  0

                                     BII..................................
  |     |     |     |     |     |     |     |     |     |     |     |     
E ---------3-----2-|0----------------|---------5-----3-|2----------------|
B ---0--3----------|---------1-------|---2--5----------|---------3-------|
G 0-----------0----|------0--------0-|2-----------2----|------2--------2-|
D -----------------|---2-------------|-----------------|---4-------------|
A ------------2----|3-----------3----|4-----------4----|5-----------5----|
E 3----------------|-----------------|-----------------|-----------------|

  0  0  4  4  1  2  3  2  0  1  3 0   1  1  4  4  1  2  1  3  1  2  4  1
  3(2/6 barre with the little               3           3     4
    finger, there's no other way!)


BIV................
  |     |     |     |     |     |     |     |     |     |     |     |     
E ---------7-----5-|3--------8-----7-|0--------5-----3-|---------1-----0-|
B ---4--7----------|------0-----7----|------------3----|1-----------0----|
G 4-----------4----|---0-----9----(7)|------2--5-------|---------2----(0)|
D -----------------|2-----------0----|---2-------------|------3----------|
A 6----------------|-----------------|3-----------2----|0--3-------------|
E -----------------|-----------------|-----------------|------------3----|
  
  1  1  4  4  1  2  2  0  0  2  1  1  0  1  1  4  2  2  1  3  4  1  0  0
  3           3     1        3  0  1  2        4  1     0        2  3

BIV     BV....                        BII.......
  |     |     |     |     |     |     |     |     |     |     |     |     
E ---8--5-----7----|---7-----0--5----|2--5--2-----3----|0--3--0--------5-|
B 4--------7-----7-|8-----8--------5-|---------3-----3-|---------1--6----|
G 4----------------|-----------------|------2----------|------0----------|
D 4----------------|-----------------|0----------------|-----------------|
A 0-----------6----|7-----------4----|------------2----|3-----------0----|
E -----------------|-----------------|-----------------|-----------------|

  1  4  1  3  4  3__3  2  3  0  4  3  1  4  1  2  4  3  0  4  0  1  4  3
              1_____1           1     0     1     1     3     0     0

                   BV.................BIV
  |     |     |     |     |     |     |     |     |     |     |     |     
E ---2--------0--3-|---8--5-----8----|-----------------|------------0--2-|
B 4-----4--0-------|---------6-----5-|4----------------|---0--2--4-------|
G -----------------|5----------------|4----------------|-----------------|
D ------4----------|------------7----|---------------4-|5-----------4----|
A 2----------------|0----------------|------4--6--7----|-----------------|
E ------------3----|-----------------|---7-------------|-----------------|
                                                                            
  4  1  4  0  0  4  1  4  1  2  4  1  1  4  1  3  4  1  2  0  1  4  0  1             
  1     3     3                 3     1                             3    
                                                                            
  |     |     |     |     |     |     |     |     |     |     |     |     
E 3----------------|0----------------|------0----------|-----------------|
B ---------0--1--3-|---------------0-|1--3-----3--1--0-|-----------------|
G ---0--2----------|---------0--2----|-----------------|2--0-------------|
D 2-----------0----|---2--4----------|------------2----|2-----4--2--4--1-|
A -----------------|3-----------2----|0-----3----------|0-----2-----2----|
E -----------------|-----------------|------------3----|-----------------|

  4  0  2  0  1  4  0  2  4  0  2  0  1  4  0  4  1  0  2  0  4  2  4  1
  2           0     3           1     0     3     2     1     1     2

  |     |     |     |     |     |     |     |     |     |     |     |     
E ------------0----|---------0--5----|0----------------|---------0--------0---|
B ---0-----0-----0-|1-----1--------4-|---10-9--7--5--4-|5--------0--------0---|
G ------1----------|---2-------------|-----------------|4-- OR --1-- OR --4---|
D 2----------------|-----------------|---10-9--7--6--4-|6--------2--------6---|
A -----------------|-----------------|-----------------|---------2--------7---|
E 0-----0-----0----|0-----0-----0----|0----------------|0--------0--------0---|

  2  0  1  0  0  0  1  2  1  0  4  3  0  4  2__2__2  1  2        1        1
  0     0     0     0     0     0     0  3  1__1  3  1  1        2        3
                                                        3        2        4

Добавлено: 09.03.2012
Другие материалы по этой песне:
  • Аккорды и текст

Страница создана 09.03.2012
http://primanota.ru/johann-sebastian-bach/gigue-from-the-lute-suite-bvw-996-in-e-minor-chords.htm
Привет, Гость.
Предлагаем пройти революционный курс по гитаре.
Подарок от PrimaNota.Ru, забирай!