PrimaNota.ru - самый крупный в мире бесплатный архив песенных текстов, аккордов, табулатур и нот


Бах Иоганн Себастьян - Gavotte En Rondeau Bwv995 - таба, видео

Регистрация Запомнить меня
Войти через:  Facebook Google Twitter Vk Yandex Mail.ru

Бах Иоганн Себастьян - Gavotte En Rondeau Bwv995 - таба, видео

Печатать
Просмотров: 224
                               Gavotte en Rondeau (BWV995)


T                                 J.S.Bach



                       (1)                                   
E||--0-----0--1p-0-----|--0---------------------------------|
B||-----3-----------3--|------------3--1--0-----3\-1--0-----|
G||*-2-----------------|--2------------------5-----------2--|
D||*----------0--------|------------------------------------|
A||--------------------|---------0-----------------0--------|
E||--------------------|------------------4-----------------|
     2  3     1                     3  1  3  4  1  1     2


 (3)
E|--------------------0-----0--1p-0-----|--0-----------------------------------|
B|--------0--------0-----3-----------3--|-----3p-1--0h-1--3--1p-0-----------0--|
G|--1h-2--------1-----------------------|--------------------------2--1h-2-----|
D|--2--------0--------------------------|-----------0--------2-----------------|
A|--------------------3--------2--------|--3-----------------------------------|
E|--------------------------------------|-----------------------------0--------|
    1  2        1     3  4     1           3  4  1     1  4  1     3  1  2
    2                          2                             2




 (5)                                                                       
E|----------------|--------------------|---------------0--1p-0-----0--------|
B|----------------|--1p-0--1--3--1--0--|--1---------3-----------3-----3--1--|
G|--2------------*|*-2--------1--------|--2---------------------------------|
D|---------------*|*-------------------|---------2--------0-----------------|
A|--0------0------|--------------------|---------------------------3--------|
E|----------------|--------------------|------------------------------------|
                     1     1  4  2        1      2  4     1     4  3  4   1
                     2        1           2




 (8)                  II----   V------     II--                       II----- 
E|--------------------3p-2--3--5--------|--3--2--0--8--7--5--3--2--0--------2--|
B|--0h-1--3-----0--3--------------8--7--|-----------------------------4h-5-----|
G|-----------0--------------------------|--------------------------------------|
D|--------------------2-----------------|--2-----------------------------------|
A|-----------2-----------------6--------|-----------0--------2--------2--------|
E|--3-----------------------------------|--------------------------------------|
    3  1  4  2     4  2  1  3  1  4  3     2  1     4  3  1  4  3     3  4  1
                      1        2           1                 2        1




 (10)                                                                       
E|--0-----------------0-----0-1p--0-----|--0=======--------------------------|
B|-----------------------3-----------3--|------------3--1--0-----3--1--0-----|
G|--------------------------------------|--2------------------5-----------2--|
D|-----2p-0-----0--------------0--------|------------------------------------|
A|-----------3-----2--0-----------------|---------0-----------------0--------|
E|--0-----------------------------------|------------------4-----------------|
                                                                                 
                                                                                 



 (12)                                                                         
E|--------------------0-----0--1p-0-----|--0-----------------------------------|
B|--------0--------0-----3-----------3--|-----3p-1--0--1--3--1p-0-----------0--|
G|--1h-2--------1-----------------------|--------------------------2--1h-2-----|
D|--2--------0--------------------------|-----------0--------2-----------------|
A|--------------------3--------2--------|--3-----------------------------------|
E|--------------------------------------|-----------------------------0--------|
                                                                                 
                                                                                 


 (14)                                     III------------------------------ 
E|--------------------------0--5--7--4--|--5---------3-----------3-----------|
B|-----------------------1--------------|---------------6--5--6-----6--5--3--|
G|--2-----------------2-----------------|------------------------------------|
D|-----2-----------2--------------------|--3------0--------------------------|
A|--------3--0--3-----------------------|------------------------------------|
E|--------------------------------------|------------------3--------4--------|
    3  2  4              1     2  4  2     3         1  4  3  4  3  4  3  1      
                                           1               1        2            


 (16)                                                                         
E|-----------------------------0--------|-----------------------------0--------|
B|--2--3--5-----0--2--3--2--3-----3--2--|--3--1-----------1-----2--3-----3--2--|
G|-----------2--------------------------|--------3--2--3-----3-----------------|
D|--------------------------------------|--------------------------------------|
A|--0-----------------------------------|--------------------------------------|
E|-----------3--------2-----------------|-----------2--------3-----------------|
    1  2  4  2     2  4  2  4     4  2        1  4  3  4  1  4  2  4     4  2    
             3        1                             2        3                   



 (18)                                                                         
E|-----------------------------0--------|--------0--1--0-----5--4--1--0--------|
B|--3--------------------2--3-----3--2--|-----3-----------3--------------3--2--|
G|-----2p-0-----0--2--0-----------------|--1-----------------------------------|
D|-----------4--------------------------|--------------------------------------|
A|-----------0--------1-----------------|--2-----------------0--------0--------|
E|--------------------------------------|--------------------------------------|
    4  2     4        1  3  4     4  3     1  4     1     4  4  3  1     3  2    
                                           2                                     



 (20)                                     III--------------                   
E|-----0--1--0--1-----4--5--7--5--7--4--|--5--3--------------1--0--------------|
B|--3--------------3--------------------|--------6--5--3-----------3--1--0-----|
G|--------------------------------------|-----------------5-----------------2--|
D|--0-----------------0-----------------|--------------------0--------1--------|
A|--------------------------------------|--3-----------------------------------|
E|--------------------------------------|--------------------------------------|
    3     1           1  2  7  2  4  1     3  1  4  3  1  3  1     3  2     3    
                                           1                          1          


 (22)                                                                         
E|--------------------0-----0--1--0-----|--0-----------------------------------|
B|--------0--------0-----3-----------3--|-----3--1--0--1--3--1--0-----------0--|
G|--1h-2--------1-----------------------|--------------------------2--1--2-----|
D|--2--------0--------------------------|-----------0--------2-----------------|
A|--------------------3--------2--------|--3-----------------------------------|
E|--------------------------------------|-----------------------------0--------|
    1  3        1                                                                
    2                                                                            


 (24)              
E|----------------||
B|----------------||
G|--2------------*||
D|---------------*||
A|--0------0------||
E|----------------||
     

Добавлено: 25.04.2012
Другие материалы по этой песне:
  • Аккорды и текст

Страница создана 25.04.2012
http://primanota.ru/johann-sebastian-bach/gavotte-en-rondeau-bwv995-chords.htm
Привет, Гость.
Предлагаем пройти революционный курс по гитаре.
Подарок от PrimaNota.Ru, забирай!