PrimaNota.ru - самый крупный в мире бесплатный архив песенных текстов, аккордов, табулатур и нот


Бах Иоганн Себастьян - Fugue In E Minor - аккорды и текст, видео

Регистрация Запомнить меня
Войти через:  Facebook Google Twitter Vk Yandex Mail.ru

Бах Иоганн Себастьян - Fugue In E Minor - аккорды и текст, видео

Печатать
Просмотров: 136
Fugue In E Minor
Бах Иоганн Себастьян
Размер: 4/4
Начало всем известное,играется довольно несложно:
 
E|---------------|-----------------|-----------------|
B|-0---0---0---0-|---0---0---0---0-|---0---0---0---0-|
G|---2---0-------|-----------------|-0---------------|
D|-----------4---|-2---1---2---4---|-------------1---|
A|---------------|-----------------|-----2---4-------|
E|---------------|-----------------|-----------------|

E|-----------------|---0---0---0---0-|---0---0---0---0-|
B|---0---0---0---0-|-----3---1---0---|-------------0---|
G|-----------------|-0---------------|-2---1---2-------|
D|-2---1---2---4---|-----------------|-----------------|
A|-----------------|-----------------|-----------------|
E|-----------------|-----------------|-----------------|

E|---0---0---0---0-|---0---0---0---0-|-----0-------0---|
B|-1---------------|-------------0---|-1-------1-------|
G|-------------1---|-2---1---2-------|-----------------|
D|-----2---4-------|-----------------|---2---2---2---2-|
A|-----------------|-----------------|-0-------0-------|
E|-----------------|-----------------|-----------------|

E|-1-------1-------|-----------------|-0-------0-------|
B|-----------------|-3-------3-------|-----------------|
G|-----2-------2---|-----4-------4---|-----0-------0---|
D|---0---0---0---0-|---5---5---5---0-|---2---2---2---2-|
A|-----------------|-5-------5-------|-3-------3-------|
E|-----------------|-----------------|-----------------|

E|-----------------|-----------------|-----------------|
B|-1-------1-------|-4-------4-------|-0-------0-------|
G|-----2-------2---|-----------------|-----0-------0---|
D|---4---4---4---4-|-----4-------4---|---2---2---2---2-|
A|-3-------3-------|---6---6---6---6-|-----------------|
E|-----------------|-7-------7-------|-0-------0-------|

E|-----------------|
B|-----------------|
G|-2-------2-------|
D|-----1-------1---|
A|---2---2---2---2-|
E|-2-------2-------|

            С этого момента техника исполнения довольно сложная
E|-----------------|-----------------|----7----7---7---7-|
B|-----------------|-----------------|------10---8---7---|
G|-0-------0-------|---2---2---2-----|-------------------|
D|-----2-------2---|-4-------4-------|---------------7---|
A|---2---2---2---2-|-----3-------3-0-|-10--------7-------|
E|-0-------0-------|-2-------2-------|-------------------|

E|----7---7----7---7-|---7---7----7---7-|----7---7---7---7-|
B|---------------7---|-8----------------|--------------7---|
G|------8--------8---|-9------------8---|------8---9---8---|
D|-------------------|-----9---11-------|------------------|
A|-10---9---10-------|--------------9---|-10---9---7-------|
E|-------------------|------------------|------------------|

E|---7---7---7---7-|---7---7---5---5-|---5---5---5---5-|
B|-8---7---5-------|---------5-------|-7---5-----------|
G|-------------7---|-5---7-------5---|---------7---5---|
D|-9-------5-------|-7---------------|-----------------|
A|-7---------------|-----------------|-5-------9-------|
E|-----------------|-----------------|-----------------|

E|---5---5---3---3-|---3---3---3---3-|---3---3---2---2-|
B|---------3-------|-5---3-----------|-----------------|
G|-4---5-------4---|---------5---4---|-2---4---5---2---|
D|-5---------------|-----------------|-4---------------|
A|-----------------|-3---------------|-----------------|
E|-----------------|---------0-------|-----------------|

E|---2---2---2---2-|---2---2---0---0-|---2---2---------|
B|-4---------------|-----------------|-----------5---5-|
G|-----5---4---2---|-----2---4---0---|-----------------|
D|-----------------|-5---------------|-4---4---2---2---|
A|-2---------------|-------------2---|-3---3---2---2---|
E|-----------------|-0---------------|-----------------|

E|-----------0---0-|---2---2---------|-0----@-|
B|---4---4-0-------|-----------5---4-|-0----@-|
G|-5---5-------0---|-----------------|-0----@-|
D|-4---------------|-4---4---2-------|------@-|
A|-0---------------|-3---3---2---2---|------@-|
E|-----------------|-----------------|-0----@-|
Добавлено: 14.02.2014
http://primanota.ru/johann-sebastian-bach/fugue-in-e-minor-chords.htm
Привет, Гость.
Предлагаем пройти революционный курс по гитаре.
Подарок от PrimaNota.Ru, забирай!