PrimaNota.ru - самый крупный в мире бесплатный архив песенных текстов, аккордов, табулатур и нот


Бах Иоганн Себастьян - Chromatic Fantasia - таба, видео

Регистрация Запомнить меня
Войти через:  Facebook Google Twitter Vk Yandex Mail.ru

Бах Иоганн Себастьян - Chromatic Fantasia - таба, видео

Печатать
Просмотров: 214
CHROMATIC FANTASIA - JS BACH (1685-1750)
from Chromatic Fantasia and Fugue in Dm, BWV 903

tuning - E A D G B E

Allegro Impetuoso Q=80

 4/4
  T T T T T T T T T T T T T T T T T T T T T  T   T   T  +Q
|-----------------0-------------------------------------------|
|-----------0-2-4---3-1-0--------------------0--(0)--7--(7)---|
|-------0-2---------------2-0-----------0--------5--(5)-(5)---|
|---2-4-----------------------4-------4---7-(7)-(7)-(7)-(7)---|
|-------------------------------7-6h7-------------------------|
|-------------------------------------------------------------|


  T T T T T T T T T T T T T T T T T T  T   T   T   T   S  +Q
|-------0-2-3-5-3-2-0------------------------------0---3--(3)--|
|-0-2-4---------------4-1-0----------------0---4--(4)-(4)-(4)--|
|---------------------------2-0--------0--(0)-(0)-(0)-(0)-(0)--|
|-------------------------------4-2h4-(4)-(4)-(4)-(4)-(4)-(4)--|
|--------------------------------------------------------------|
|--------------------------------------------------------------|


  |-3-| |-3-| |-3-| |-3-| |-3-| |-3-| |-3-| |-3-|
  S S S S S S S S S S S S S S S S S S S S S S S S
|-----3-----5-----7-----8-------5h8p5-------------|
|---5-----5-----5-----5---0h4h7-------7---0-------|
|-------------0-------------------------8---2p0---|
|-2-----4-----------7---------------------------4-|
|-------------------------------------------------|
|-------------------------------------------------|


  |-3-| |-3-| |-3-| |-3-| |-3-| |-3-| |-3-| |-3-|
  S S S S S S S S S S S S S S S S S S S S S S S S
|---3-----5-----7-----8---------------------------|
|-----5-----5-----5-----5-4-------------------4-7-|
|-------------0-------------5---------------5-----|
|-2-----4-----------7---------7-4-------4h7-------|
|---------------------------------6---6-----------|
|-----------------------------------7-------------|


  |-3-| |-3-| |-3-| |-3-| |-3-| |-3-| |-3-| |-3-|
  S S S S S S S S S S S S S S S S S S S S S S S S
|-------8-------0---7---------0-5-----------3-----|
|-5-7-8---5---3---7---3-----4---------0-2-4---0---|
|-----------------------0-5-------5---------------|
|-----------7-----------------------4-----------2-|
|-------------------------------------------------|
|-------------------------------------------------|


  |-3-| |-3-| |-3-| |-3-| |-3-| |-3-| |-3-| |-3-|
  S S S S S S S S S S S S S S S S S S S S S S S S
|-----1-----0-----------0-------------------------|
|---1-----0-------4---0---------------------------|
|-2-----0-------2---0---------5-----4-----5-----4-|
|-------------4-------------5-----4-----5-----4---|
|-------------------------7-----6-----7-----6-----|
|-------------------------------------------------|


  |-3-| |-3-| |-3-| |-3-| |-3-| |-3-| |-3-| |-3-|
  S S S S S S S S S S S S S S S S S S S S S S S S
|-------------------------------------------------|
|---------------------2-----------------------0---|
|-----5-------------2---------4-------------1-----|
|---5---8p5-----2h5-----2---4---6p3-----0h3-----0-|
|-7---------7-4-----------5---------5-2-----------|
|-------------------------------------------------|


  |-3-| |-3-| |-3-| |-3-| |-3-| |-3-| |-3-| |-3-|
  S S S S S S S S S S S S S S S S S S S S S S S S
|-------------------------------------------------|
|-----------------2-------------------------------|
|-----2-------------0-----------0-----------0-----|
|---2---5p4-2---2-----4-2---1h4---4-----1h4---2---|
|-3-----------1-----------2---------1-2---------1-|
|-------------------------------------------------|


  |-3-| |-3-| |-3-| |-3-| |-3-| |-3-| |-3-| |-3-|
  S S S S S S S S S S S S S S S S S S S S S S S S
|-------------------------------------------------|
|-------------------------------------------------|
|-----0---------------1---------------------------|
|---0---3p0-------0-3---------4-1-----------1-4---|
|-2---------2---2-------2---3-----3-0---0h3-----0-|
|-------------4-----------5-----------2-----------|


  |-3-| |-3-| |-3-| |-3-| |-3-| |-3-| |-3-| |-3-|
  S S S S S S S S S S S S S S S S S S S S S S S S
|-------------------------------------------------|
|-------------------------------------------------|
|---------------------------------------2-0-------|
|-----2-----------0-------------1-4-1-------3-2-1-|
|---2---4-1-----0---2-------0-3-------3-----------|
|-4---------3-2-------4-1-0-----------------------|


  |-3-| |-3-| |-3-| |-3-| |-3-| |-3-| |-3-| |-3-|
  S S S S S S S S S S S S S S S S S S S S S S S S
|-------------------------------------------------|
|-------------------------------------------------|
|-----5-----------4-----------2-----------0-------|
|---5---8p5-----4---6p3-----2---4p1-----2---2-----|
|-7---------7-6---------5-4---------3-2-------4p1-|
|-------------------------------------------------|


  |-3-| |-3-| |-3-| |-3-| |-3-| |-3-| |-3--| |-3--|
  S S S S S S S S S S S S S S S S S S S S  S S  S S
|-----------------------1---------------------------|
|-----------------3---3-----------------------------|
|-----------2---2---2-----------------------------8-|
|---0-3---3---3-------------1-4---4-7---7-10-7-10---|
|-0-----5-----------------3-----6-----9-------------|
|---------------------------------------------------|


  |-3--|  |-3-| |-3-| |-3--| |-3--|  |-3-| |-3-| |-3--|
  S  S S  S S S S S S S S  S S  S S  S S S S S S S S  S
|---------------------8-7------------------------8-7----|
|--------10-8-7-----7-----10--------10-8-7-----7-----10-|
|------8----------8---------------8----------8----------|
|---10----------7--------------10----------7------------|
|-------------------------------------------------------|
|-7--------------------------7--------------------------|


  |-3-| |-3-| |-3-| |-3--| |-3-| |-3-| |-3-| |-3-|
  S S S S S S S S S S  S S S S S S S S S S S S S S
|-------0-2-3------------7-----0-------------------|
|---0-4-------0-----8-10---8p7---4---0-------------|
|-0-------------8-9----------------5---2p0---------|
|------------------------------------------4-2p1---|
|------------------------------------------------3-|
|--------------------------------------------------|


  |-3-| |-3-| |-3-| |-3-| |-3-| |-3-| |-3-| |-3-|
  S S S S S S S S S S S S S S S S S S S S S S S S
|-------2-----------------------2-----------------|
|-----4---5-4-------1-0-------4---5-4-------1-0---|
|---2-------------2-----2---2-------------2-----2-|
|-------------1-4---------------------1-4---------|
|-2-----------------------2-----------------------|
|-------------------------------------------------|


  |-3-| |-3-| |-3-| |-3-| |-3-| |-3-| |-3-| |-3-|
  S S S S S S S S S S S S S S S S S S S S S S S S
|-----------------------0-------0h2-3-----0---6-7-|
|-----------0-------0h4-----0h4-------0-----8-----|
|-------0h2-----0h3-------0-------------8---------|
|---1h2-------2-----------------------------------|
|-2-----------------------------------------------|
|-------------------------------------------------|


  |-3-| |-3-| |-3-| |-3-| |-3-| |-3-| |-3-| |-3-|
  S S S S S S S S S S S S S S S S S S S S S S S S
|-9-6-7-9-0-2-3-----------------------------------|
|---------------2-3-5-----------------------------|
|---------------------3-4-5-----------------------|
|---------------------------2-4-5-----------------|
|---------------------------------4-5-7-------6-7-|
|---------------------------------------6-7-9-----|


  |-3-| |-3-| |-3-| |-3-| |-3-| |-3-| |-3-| |-3-|
  S S S S S S S S S S S S S S S S S S S S S S S S
|-----0---------------------3-2-0-----------------|
|---7---4---0---------------------1-0-------------|
|---------6---2p0---------------------2p0---------|
|-----------------4-2p1-4-----------------4-2p1-4-|
|-6-----------------------2-----------------------|
|-------------------------------------------------|


  |-3-| |-3-| |-3-| |-3-| |-3-| |-3-| |-3-| |-3-|
  S S S S S S S S S S S S S S S S S S S S S S S S
|---------------------------------3-2-0-----6-----|
|-------------1p0-------5-4-2-0---------------8-7-|
|---2-0-----------2-0-----------2-------8-6-------|
|-------4-2-1---------4---------------------------|
|-2-----------------------------------------------|
|-------------------------------------------------|


  |-3-| |-3-| |-3-| |-3-| |-3-| |-3-| |-3-|
  S S S S S S S S S S S S S S S S S S S S S E
|-------7-----------------------------------7tr6-|
|-----7---7---7-----4----------------------------|
|-9-8-------8---8-----4---4----------------------|
|-----------------9-----4---4---4-----4----------|
|-----------------------------6---6-----6--------|
|-----------------------------------7-----7------|


2/4
         |-3-|
  +E     S S S Q
|-(7tr6)-4h6h7-7--|
|-----------------|
|-----------------|
|-----------------|
|-----------------|
|-----------------|


4/4
  T T T T T T T  T T T T T T T T T T T T T T T  T T T T T T T T T T
|----------------------5-7-8-7-5-------5------------------------------|
|-------------4-/5-7h8-----------8-7-8---8-7-5-/4-5-7-5-4-------------|
|---------4-6---------------------------------------------6-4---5-4---|
|---4-5-7-----------------------------------------------------7-------|
|---------------------------------------------------------------------|
|---------------------------------------------------------------------|


  T T T T T T T T T T T T T T T T T T T T T T T T T T T T T T T T
|------------------------------------------------------------------|
|------------------------------------------------------------------|
|------------------------------------------------------------------|
|-7p5-4-5-7-5-4-------4-------------------4-5-7-5-4-------4--------|
|---------------7-6h7---7-6-4-------4-6-7-----------7-6-7---7-6-4--|
|-----------------------------7-5-7--------------------------------|


  T T T T T T T T T T T T T T T T T T T T T T T T T T T T T T T T
|------------------------------------------------------------------|
|------------------------------------------------------------------|
|---------------------------------------------4-5-4-----4----------|
|---------4-5-7-5-4-7-5-4---------------4-5-7-------7-5---7-5-4----|
|---4-6-7-----------------7-6-4---4h6-7-------------------------7--|
|-7-----------------------------7----------------------------------|


  T T T T T T T T T T T T T T T  T T  T T T T T T T T T T T T T T T
|-------------------------0-------------7-------0--------------------|
|-----------------------4---7-8-10-8h10---7-8-----0-----0------------|
|-----------4-5-4---4-6-----------------------8-----0h2---0---0------|
|-----4-5-7-------7-----------------------------------------2---4-2--|
|-6h7----------------------------------------------------------------|
|--------------------------------------------------------------------|


  T T T T T T T T T T T T T T T T T T T T T T T T  S  X  X  X  X  S.    X  X
|-------------------------------------------3-2-0-----------------------------|
|-------------------------------2-----5-3-2-------11-12-11----11-11tr12----11-|
|-------------------0-----3-0-----4-3----------------------13-----------13----|
|-------------2-0-----4-2-----4-----------------------------------------------|
|-1-----4-2-1-----4-----------------------------------------------------------|
|---4-2-----------------------------------------------------------------------|


   |--3--|  |--3--| |-3-| |-3-| |-3-| |-3-| |-3-| |-3-|
   S  S  S  S  S  S S S S S S S S S S S S S S S S S S S
|----12-------------0---0---0---------------------------|
|-12----12----12------8---0---0---0---------------------|
|----------12----12-------------0---0---0---------------|
|-------------------------------------2---2---2---------|
|-------------------------------------------2---2---2---|
|-------------------------------------------------3---3-|


  Andante Q=60
  |-3-| |-3-| |-3-| |-3-|
  S S S S S S S S S S S S  H       H     H
|-------------0-----------^2----|-^3----^4----|
|-----------0---0---------^1----|-^0----^6----|
|---------0-------0-------^2----|-^0----^4----|
|-------2-----------2-----^1----|-^2----^6----|
|-----2---------------2---^0----|-^2----^5----|
|-0-3-------------------3-^0----|-^0----^0----|


   H     H      S. T T T T T E.   T T  H
|-^5----^6----|-7--7s8p7p5h7-7tr8-5h7-^8----|
|-^5----^8----|-4---------------------^7----|
|-^5----^6----|-4---------------------^8----|
|-^7----^8----|-4---------------------^7----|
|-^7----^7----|-0---------------------^0----|
|-^0----^0----|-----------------------------|


    Allegro Q=80
  T  T T T T T T T T T T T T T T T T T T T T T T T T T T T T T T T
|---/7p5-------5-----0----------------------------------------------|
|--------8-7h8---7-----7-----0--------------------------------------|
|------------------8-----8-----5-----0------------------------------|
|--------------------------7-----7-----7-------4--------------------|
|----------------------------------9-----9-6h7---6-0-2-3-0-----0----|
|----------------------------------------------------------2-3---2--|


                                  H.=H
  T T T T T T T T T T T T T T T T T T T T T T T T T T T T T T T T
|------------------------------------------------------------------|
|-----------------------------------0-1----------------------------|
|-------------------0-2---------0-2-----2---0-2--------------------|
|-1h2-4-1-----1-2-4-----4-1-2-4-----------4-----4-1-2-4-1-----1----|
|---------2-4---------------------------------------------2-4---2--|
|------------------------------------------------------------------|


  Andante Q=60
   H     Q  Q     H     H       H     H       H     H
|-------^0-----|-------------|-------^0----|-^0----------|
|-^6----^0--3--|-^2----^3----|-^4----^2----|-^2----^3----|
|-^4----^1-----|-^1----^1----|-^5----^0----|-^3----^4----|
|-^6----^2-----|-^3----^3----|-^4----^2----|-^4----^4----|
|-^5----^2-----|-^2----^2----|-^0----^1----|-^5----^5----|
|-^4----^4-----|-^1----^1----|-------------|-------------|
   H     H


   H     H       H     H       H     H       H     Q   Q
|-------------|-^1----------|-^0----------|----------------|
|-^3----^4----|-^0----^4----|-^0----^3----|-^1----^1--(1)--|
|-^4----^5----|-^0----^2----|-^0----^4----|-^2----^2--(2)--|
|-^3----^4----|-^0----^4----|-^2----^2----|-^3----^3---2---|
|-------------|-^2----------|-^2----^2----|-^0----^0--(0)--|
|-^4----^5----|-^3----^3----|-^3----^4----|----------------|


   H     H       H    +S  S S S S S S S   S S S S S S S S S S S S S S S S
|-------------|-----------5-3-2-3-------|-------------------------0--------|
|-^1----^0----|-^0----(0)---------4-5-0-|-1---------------------0----------|
|-^2----^0----|-^0----(0)---------------|---3-4---------------0-----0-4-3--|
|-^1----^4----|-^2----(2)---------------|-------4-5-1-2-----2--------------|
|-^2----^6----|-^3----(3)---------------|---------------2-3----------------|
|-------^7----|-------------------------|----------------------------------|


  S S S S S S S S  Q   Q     H     H       H     Q   Q      H     Q   Q
|-------------------------|-------------|----------------|---------------|
|-----------------^0------|-------------|-^3----^3--(3)--|-^3----^2--^0--|
|-4-1-------------^1------|-^4----^3----|-^3----^4--(4)--|-^4----^1--^1--|
|-----3-0---------^0------|-^4----^2----|-^4----^4--(4)--|-^4----^3--^3--|
|---------4-2-----^2--/4--|-^2----^4----|-------^5---2---|---------------|
|-------------4-2-^1------|-^2----^2----|-^2-------------|-^3----^4--^4--|


                         Molto Adagio Q=50
   H     Q   Q     Q  Q  S S S S T T T T T    X X X X T
|---------------|---------------------------------------|
|---------------|------------0--------------------0-----|
|-^4----^4--^3--|-^4-------5---2-1h2p1h2-2tr4-1h2---1---|
|-^4----^2--^2--|-^4----------------------------------2-|
|-^2----^4--^4--|-^7--6---------------------------------|
|-^2----^2--^2--|-^7------------------------------------|


  E E E  E  S S S S T T T T T T X X X X   E E E  E  S S S S S S S T T
|---------------------------------------|-----1-(1)-----4-3------------|
|--------0----------0---3-4-3-4-6p4-3h4-|-6---1--0----6-----6-4-3-4----|
|-----5---------0-2---5-----------------|-----1-(1)-----------------5--|
|-1-0-3-(3)---4-------------------------|-----0-(0)--------------------|
|-----5-(5)-----------------------------|------------------------------|
|-----4-(4)-----------------------------|------------------------------|


  E E Q  +S  S S S E.   T T   E E Q  +S  S S S E.   T T
|---------------------------|---------------------------|
|------------1-0-1-1tr3-0h1-|-3---3--(3)-4-3-4-4tr6-3h4-|
|-5-4-4--(4)----------------|-----1---------------------|
|-----3--(3)-1-0-1-1tr3-0h1-|-3---3--(3)-5-3-5-5tr6-3h5-|
|-----5---------------------|-----2---------------------|
|-----4---------------------|---------------------------|


  S S S S S S E S S S S S S S T    T   E E Q  +S  S S S T T T T T    T T T
|-----------------------1-4-3-1tr3---|--------------2-1--------------------|
|-6-3-0-----0-0-----0-3------------4-|-4---4--(4)-4-----4-2-1-2-2tr4-1-2-4-|
|-------5-5---0---0------------------|-----1-------------------------------|
|-6-----------3----------------------|-----1-------------------------------|
|-------------2----------------------|-----3-------------------------------|
|-------------3----------------------|-----2-------------------------------|


                                      H=H
  E E Q  S S S S S T T S T T   E E Q  +T  T T T T T T T S S S T T
|----------------------------|----------------------------0---2p0--|
|----------------------------|------------------------0-2---4------|
|-3-2-2----2---0-2-3p2-0-3p2-|-3---3--(3)---------1-3--------------|
|-----1------3---------------|-----4--(4)---1-3-4------------------|
|-----3----------------------|-----4------4------------------------|
|-----1----------------------|-----0-------------------------------|


  Andante Q=H.=H         Adagio Q=50
  T T T T T T T T S E. E E E E   E E T T T T T T T T E E T T T T S.   T
|-0---------------0------------|-------------0--------------------------|
|---------------2---4----2-2-0-|-0-----0-2-4---2------------------------|
|-------------3----------------|---3-3-----------3-0-1-0---0h1h3-1tr3-0-|
|---1-----1-4------------2-2-1-|-1-----------1---2---2------------------|
|-------1----------------------|---4-4---------------4------------------|
|-----3------------------------|----------------------------------------|


  Andante Q=60
  S  T   T  S  S  S  T   T  S  T   T   Q  T T T T T T T T
|--------0----------------------------^1----------------4-|
|-2--4------4--2--0------2--0---------^0----7p6p4---4-6---|
|--------------3-----3------0--3---1--^1----------6-------|
|-----------------1-(1)-(1)-----------^0------------------|
|---------------------------4-(4)-(4)---------------------|
|-3-(3)-(3)-4-(4)-----------------------------------------|


                                          Allegro Q=80
                                       |-3--| |-3-|
  E E T  T   T   T   S   T   T  E  E  +S  S S S S S
|-7-7------------7---6---7--------------------------|
|--------6---9---------------9--9--7--(7)-----------|
|-----6-------------------------8--8------8-6-8-----|
|-----8-(8)-(8)-(8)-(8)-(8)-(8)-8--8------------8-6-|
|-----8-(8)-(8)-(8)-(8)-(8)-(8)-6-(6)---------------|
|-----6-(6)-(6)-(6)-(6)-(6)-(6)---------------------|


  |-3-| |-3-| |-3-| |-3-| |-3-| |-3-| |-3-|      |-3-|
  S S S S S S S S S S S S S S S S S S S S S S.   X X X
|---------------------------------------4-5-5tr7-4-5-7-|
|---------------------------4---4-7-5-7----------------|
|---------------------4---4---6------------------------|
|-8-4---4-------4---4---8------------------------------|
|-----8---6-5-6---8------------------------------------|
|------------------------------------------------------|


   S  E. E +T   T   T   T  T T T T T T T T T T T T T T T T
|-(7)----0-(0)--0----------------1-------------------------|
|--6--5--0-(0)-(0)--3---1--0h1-3---3-1-0-------0-3-0-------|
|--------1-(1)-(1)-(1)-(1)---------------2-1h2-------2-1---|
|--------0-(0)-(0)-(0)-(0)-------------------------------4-|
|----------------------------------------------------------|
|----------------------------------------------------------|


  T T T T T T T T T T T T T T T T T T T T T T T T T T T T T T T T
|------------------------------------------------------------------|
|------------------------------------------------------------------|
|-----1h4-2p1-----------1------------------------------------------|
|-2h4---------4p2-0h2-3---3p2-0-------0h3--------------------------|
|-------------------------------3-2h3-----5p3-2p0-----2h5-2p0------|
|-------------------------------------------------4h5---------4p2--|


  T T T T T T T T T T T T T T T T T T T T T T T T T T T T T T T T
|------------------------------------------------------------------|
|------------------------------------------------------------------|
|-------------------------------------------------------4-----4----|
|-----------------------------0h2-3p0-2h3-----0h2-4h6h7---6h7------|
|---------2h3-5p2-3h5-----2h3-------------2h3-------------------7--|
|-0h2-4h5-------------4h5------------------------------------------|


  T T T T T T T T T T T T T T T T T T T T T T T T T T T T T T T T
|-----------------------------0-1---0-1-------0---4-5-7-4-5-7-0----|
|-------------------------1-3-----3-----0-1-3---7---------------7--|
|-------4-5h7-4h5-7-1-2-4------------------------------------------|
|-4h6-7------------------------------------------------------------|
|------------------------------------------------------------------|
|------------------------------------------------------------------|


                                                     Largamente Q=45
  T  T T T  T T T  T T T T T T T T T T T T T T T T T S S S T T
|------7-8-10-8-7--------0-------------------------------------|
|-9-10------------10-9-7---3-1-0-----------------------3-1-3p0-|
|--------------------------------2-1---------------------1-----|
|------------------------------------4-2-0---------------2-----|
|------------------------------------------3-2-0---------------|
|------------------------------------------------4-2-0---------|


                         H=H
   Q  +T  T T T S.   X X S T T S.   X X S T T S.   X X
|-------------0-0tr1---0-1-----------------------------|
|-^1--(1)-1h3--------3-----0-1-1tr3-0h1-3--------------|
|-^2--(2)---------------------------------1-2-2tr4-1h2-|
|-^2--(2)----------------------------------------------|
|-^0--(0)----------------------------------------------|
|------------------------------------------------------|


  Adagio Q=50
  E  S  T T S S S T T  Q  T T T T X X X X T X X
|---------------------------------0h2-3h5-3-5p2-|
|-0-(0)-0h3-1p0---0---------0-2-4---------------|
|----1----------2---1-^2------------------------|
|----0----------------^4------------------------|
|---------------------^6------------------------|
|-----------------------------------------------|


                                   Allegro Q=80
  S T T T. X X X X X E.   T T Q  S T T  T T T T
|-3-0------5-------5-5tr7---5-7----8p7--------0-|
|-0---7-8----8-7-8---5----8---7--------10p8-7---|
|-0---------------------------8-----------------|
|-----------------------------9-----------------|
|--------------------0--------9-----------------|
|-0---------------------------7-----------------|


  T T T T T T T T S S S S S S S S S S S S
|-------------2h3-5p2---------------------|
|-4p2-0h2-4h5---------4-1-----------------|
|-------------------------2---------------|
|---------------------------4-1-------1---|
|-------------------------------3-0-------|
|-----------------------------------2---2-|


  E E  E E S T T T T T T T T T T T T T T
|-----^1p0-------------------------------|
|-----^0---------------------------------|
|-----^1---------------------------------|
|-----^0-----------------0h2-3p2---------|
|--------------------2h3---------5p3-2p0-|
|-4----------0h2-4h5---------------------|


                                                             Maestoso Q=55
  S S S S S S S S  S S  S S S T T S T T   E E S.  T  T T T T E S +S  E S S
|---------------1----7-10-7---7---0-4p0-|----------------2-3-5-7-(7)-0-----|
|-----------0-3---/9--------9---9-------|-3-2-2---2--4h5-----4-0-(0)-8-7---|
|---------1-----------------------------|-----2--(2)-----------0-------8-9-|
|-----0-3-------------------------------|-----2--(2)---------4----7--9-7---|
|---2-----------------------------------|----------------------7-(7)-------|
|-4-------------------------------------|-----3--(3)-------------------7---|
                                          H                  E S  S  Q


  Lento rubato quasi impro Q=50
  S S S S S S S S E E S T T T T S   E E S S T T S E E T T T T T T S
|-0---------0-5-8-0-----------4-7-|-------------5---------0---0-2-3-|
|-0-----------------4---3-2-3-----|---------4h7---------0---4-------|
|-----1---2-------2---1-----------|-7-6---5-------5-4---------------|
|-7---0-3-2-------4---0-----------|-5---4---------3---2-------------|
|---------3-----------2-----------|-7---0---------5---2-------------|
|-7-0-------------0---------------|-0-------------0---3-------------|


  E E S T T T T T T E E S T T T T S
|---------------0-2-------0---------|
|-0-------0-1-4-------------2---0-2-|
|---3---2-----------2-1-3-----3-----|
|-2---1-------------0---5-----------|
|-4---0-------------2---4-----------|
|-0---2-------------0---0-----------|


                           Maestoso Q=40
   S S E T T T T T T S E E T X X X X X X X X T T X X
|----------1-----------------------------------------|
|------------3-----0-----------------0-1-0-----------|
|-^0-----------4-1---------------1-2-------2-0---0-2-|
|----2-4-0-----------3-3-2---2-4---------------4-----|
|-^0-------------------1---3-------------------------|
|-^0-------------------0-----------------------------|


   E E E.   T T E  T   T   T   T  +Q
|-^0------------0-(0)-(0)-(0)--0--(0)---||
|-^5-4-4tr5-2-4------------0--(0)-(0)---||
|-^2-------------------1--(1)-(1)-(1)---||
|-^4---------------2--(2)-(2)-(2)-(2)---||
|-^0------------------------------------||
|-^0------------0-(0)-(0)-(0)-(0)-(0)---||


Duration Legend
---------------
H - half    Q - quarter    E - 8th    S - 16th    T - 32nd    X - 64th
+ - note tied to previous    . - note dotted
Uncapitalized letters represent notes that are staccato (1/2 duration).
Irregular groupings are notated above the duration line.
Duration letters will always appear directly above the note/fret numbers they
represents the duration for.  Duration letters with no fret number below them
represent rests. Low melody durations appear below the staff.

Tablature Legend
----------------
h   - hammer-on
p   - pull-off
/   - slide up
tr  - trill
^   - arpeggio
()  - tied (held) note
Добавлено: 10.03.2012
Другие материалы по этой песне:
  • Аккорды и текст

Страница создана 10.03.2012
http://primanota.ru/johann-sebastian-bach/chromatic-fantasia-chords.htm
Привет, Гость.
Предлагаем пройти революционный курс по гитаре.
Подарок от PrimaNota.Ru, забирай!