PrimaNota.ru - самый крупный в мире бесплатный архив песенных текстов, аккордов, табулатур и нот


Бах Иоганн Себастьян - Cello Suite Prelude In G Major - таба, видео

Регистрация Запомнить меня
Войти через:  Facebook Google Twitter Vk Yandex Mail.ru

Бах Иоганн Себастьян - Cello Suite Prelude In G Major - таба, видео

Печатать
Просмотров: 267
Уроки эстрадного вокала в Санкт-Петербурге
1
e|-----2-0-2---2-------2-0-2---2---|-----3-2-3---3-------3-2-3---3---| 
B|---------------------------------|---0-------0---0---0-------0---0-| 
G|---2-------2---2---2-------2---2-|---------------------------------| 
D|-0-------------------------------|-0-------------------------------| 
A|---------------------------------|---------------------------------| 
D|-----------------0---------------|-----------------0---------------|
     1 2                                 2 1


3
e|-----3-2-3---3-------3-2-3---3---|-----2-0-2---2-------2-0-2---2---| 
B|---2-------2---2---2-------2---2-|---3-------3---3---3-------3---2-| 
G|---------------------------------|---------------------------------| 
D|-0-------------------------------|-0-------------------------------| 
A|---------------------------------|---------------------------------| 
D|-----------------0---------------|-----------------0---------------|
     1 2 1                             3 2


5
e|-----2-0-2-----------------------|-----0---0---0-------0---0---0---| 
B|---0-------3-2-3-0-3-2-3---------|---3---3---3---3---3---3---3---3-| 
G|---------------------------2-1---|-1---------------1---------------| 
D|-0-----------------------4-----4-|---------------------------------| 
A|---------------------------------|---------------------------------| 
D|---------------------------------|---------------------------------|
       2     3 1 3         4 2 1


7
e|---0-5-4-5-0---0---0---0---------|---------------------------------| 
B|-2-----------3---2---3-----2-0---|-----3-2-3---3-------3-2-3---3---| 
G|-------------------------2-----2-|---------------------------------| 
D|---------------------------------|---4-------4---4---4-------4---4-| 
A|-0-------------------------------|-2---------------2---------------| 
D|---------------------------------|---------------------------------|
   1   4 3 4   2   1       1 2   1   1 3 2 1


9
e|-----------------------5-4-2-0---|-------5-0-5---0-----------------| 
B|-------0---------3-2-0---------3-|-2-0---------2-------2-5-3-2-----| 
G|---1-2---2-1---------------------|-----2-----------2-4---------4-2-| 
D|-------------4-2-----------------|---------------------------------| 
A|-2-------------------------------|-0---------------0---------------| 
D|-----------------0---------------|---------------------------------|
   2 1 3   3 1 4 1 2 1   4 3 1   2   1   1 4     1       1 4 2 1 3 1


11
e|-----------------2---------------|-----0-2-3-0---------0-2-3-0-----| 
B|-4-----------4---------------4---|---0---------0-----0---------2-0-| 
G|---2-5-4-5-2---2---2-5-4-5-2---2-|-0-------------2-0---------------| 
D|---------------------------------|-2-------------------------------| 
A|-2---------------2---------------|---------------------------------| 
D|---------------------------------|-----------------2---------------|
   3 1 4 3 4 1 3 1 1 1 4   4 1 3 1   2     3 4     2 1           2


13
e|---------0---0-----------0---0---|---------------------------------| 
B|---2---2---2---2---2---2---2---2-|-3-2---3-2-3-5-2-3-2-------------| 
G|-3---3-----------3---3-----------|-----4---------------4-2---------| 
D|---------------------------------|-------------------------5-4-2---| 
A|---------------------------------|-2---------------2-------------5-| 
D|-4---------------4---------------|---------------------------------|
   2 1                               2   3       4 1 2 1 3 1 4 3 1 4
   3                                 1

15                                   C4 
e|---------------------------------|---------------------------------| 
B|---------------------------------|---------------------------------| 
G|-----2---2---2-------2---2---2---|-----5-4-5---5-------5-4-5---5---| 
D|---5---5---5---5---5---5---5---5-|---4-------4---4---4-------4---4-| 
A|-4---------------4---------------|-5---------------5---------------| 
D|---------------------------------|---------------------------------|
   3 4 1                             2 1 3 1


17                                     C2 
e|---------------------------------|-----3-2-3---3-------3-2-3---3---| 
B|-----0---0---0-------0---0---0---|---2-------2---2---2-------2---2-| 
G|---0---2---0---0---0---2---0---0-|---------------------------------| 
D|-0---------------0---------------|-0---------------0---------------| 
A|---------------------------------|---------------------------------| 
D|---------------------------------|---------------------------------|
         2                             1 2 1


19                                   C6 
e|-----2-0-2-----------------------|---------------------------------| 
B|-----------3-2-------------------|---------------------------------| 
G|---2-----------4-2---------------|-------6-7---6-7-------6-7---6-7-| 
D|-0-----------------5-4-2---------|-----9-----9---------9-----9-----| 
A|-------------------------5-4-2-0-|---7---------------7-------------| 
D|---------0-----------------------|-6---------------6---------------|
     1 2   2 3 1 4 1 4 3 1 4 3 1     1 2 4 1 2 4


21                                               (* 
e|---------------------------------|---------------------------------| 
B|-------0-----0---------0-----0---|---------5-9-10--------------2-3-| 
G|---------6-----6---------6-----6-|-------6-----------------2-4-----| 
D|-----7-----7---------7-----7-----|-----7-------------2-4-5---------| 
A|---7---------------7-------------|---7-----------------------------| 
D|-5---------------5---------------|-5-------------------------------|
   1 3 4   2                         1 3 4 2 1 4  4    1 3 4 1 3 1 2


23                                                   C2 
e|---------------2-3-0-------2-3-5-|-6-5-4-5-5-3-2-3-3---------------| 
B|-5-2-----2-3-5-------2-3-5-------|-------------------5-2-----------| 
G|-----2-4-------------------------|-----------------------4-2-------| 
D|---------------------------------|---------------------------2-4-5-| 
A|---------------------------------|---------------------------------| 
D|---------------------------------|---------------------------------|
   4 1 1 3 1 2 4 1 2   1 2 4 1 2 4   4 3 2 3 4 2 1 2 2 4 1 3 1 1 3 4


25
e|---------0-2-3-0-2---------------|-----------0-2---4-1-0-1-1-0-----| 
B|-------2-----------3-------------|---------3-----3-0-----------4-5-| 
G|-----2---------------2-0---------|-------2-------------------------| 
D|---2---------------------4-0-2-4-|---0-4---------------------------| 
A|-0-------------------------------|-0---------------0---------------| 
D|---------------------------------|---------------------------------|
             1 2   1 2 1   3   1 3       4 2 3   1 3 4 1   1 1   3 4


27
e|-------------------------0-4-5-4-|-5---------0---------------------| 
B|-5-3-2-3-3-----------0-3---------|---5-2---2-----2-----------------| 
G|-----------4-1-----1-------------|-------4-----2-----2-1-----------| 
D|---------------4-2---------------|-----------------2-----4-2-0-----| 
A|---------------------------------|-0---------------------------4-2-| 
D|---------------------------------|---------------------------------|
   4 2 1 2 2 3 1 4 2 1   3   3 4 3   4 3 1 3 1   1 2 2 3 1 4 2   4 2


29     C2
e|-----3-2-----------3-2-----------|---2-0---------------------------| 
B|---------5-3-2---------5-3-2-----|-------3-2-0-------5-3-2---------| 
G|---------------4-2-----------4-2-|-0-----------2-0---------4-2-----| 
D|---------------------------------|-----------------4-----------5-4-| 
A|-0-------------------------------|-0-------------------------------| 
D|---------------------------------|---------------------------------|
                     2 1 4 2 1 3 1     1   2 1   1   3 4 2 1 4 1 4 3


31 C2
e|-----------0---0---0---0---0---0-|---0---0---0---0---0---0---0---0-| 
B|---3-2-0-------------------------|---------------------------------| 
G|---------6-------4---6---7---4---|-6-------7-------6-------7-------| 
D|-2-----------7-------------------|-----7-------9-------7-------9---| 
A|-0-------------------------------|-0-------------------------------| 
D|---------------------------------|---------------------------------|
   1 2 1   3   4   1   3   4   1     1   2   1   3   1   2   1   3


33
e|---0---0---0---0---0---0---0---0-|---0---0---0---0---0---0---0---0-| 
B|---------------------------------|------------------------10-------| 
G|-6-----------6---7---9--11-------|-9--11--12------11--12------11---| 
D|-----7---9-----------------------|---------------------------------| 
A|-0---------------------------0---|-------------0-------------------| 
D|---------------------------------|---------------------------------|
   1   2   4   1   1   3   3         1   3   4       3   4   2   3


35
e|---0---0---0---0---0---0---0---0-|---0---0---0---0---0---0---0---0-| 
B|---------------------------------|---------------------------------| 
G|12--11--12---9--11---9--11---7---|-9---7---9---6---7---6---7---4---| 
D|---------------------------------|---------------------------------| 
A|---------------------------------|---------------------------------| 
D|---------------------------------|---------------------------------|
   4   3   4   1   3   1   3   1     3   1   3   1   2   1   4   1


37
e|---0---------------------0---1---|-2---3---4---5---6---7---8---9---| 
B|-------0-1---2---3---4-----------|---------------------------------| 
G|-6---2---2---3---4---5---0---1---|-2---3---4---5---6---7---8---9---| 
D|---------------------------------|---------------------------------| 
A|-----------0---0---0---0---0---0-|---0---0---0---0---0---0---0---0-| 
D|---------------------------------|---------------------------------|
   3   2   1   1   1   1       2                     4
           2   2   2   2       1                     3


39
e|10------10--10--10------10--10---|10------10--10--10------10--10---| 
B|---7---7---7---7---7---7---7---7-|---------------------------------| 
G|---------------------------------|---9---9---9---9---9---9---9---9-| 
D|-----7---------------7-----------|-----7---------------7-----------| 
A|-0---------------0---------------|-0---------------0---------------| 
D|---------------------------------|---------------------------------|
   4 1 1                             4 3 1


41 rit                              (*
e|-9-------9---9---9-------9---9---|10-)-----------------------------| 
B|---8---8---8---8---8---8---8---8-|-7-(-----------------------------| 
G|---------------------------------|-7-)-----------------------------| 
D|-----7---------------7-------7---|-0-(-----------------------------| 
A|-0---------------0---------------|-0-)-----------------------------| 
D|---------------------------------|-0-(-----------------------------|
   4 2
Добавлено: 31.07.2012
Другие материалы по этой песне:
  • Аккорды и текст

Страница создана 31.07.2012
http://primanota.ru/johann-sebastian-bach/cello-suite-prelude-in-g-major-chords.htm
Привет, Гость.
Предлагаем пройти революционный курс по гитаре.
Подарок от PrimaNota.Ru, забирай!