PrimaNota.ru - самый крупный в мире бесплатный архив песенных текстов, аккордов, табулатур и нот


Бах Иоганн Себастьян - Cello Suite Part 1 - таба, видео

Регистрация Запомнить меня
Войти через:  Facebook Google Twitter Vk Yandex Mail.ru

Бах Иоганн Себастьян - Cello Suite Part 1 - таба, видео

Печатать
Просмотров: 151
Уроки эстрадного вокала в Санкт-Петербурге
Part 1
As Seen on Youtube under Bach Cello Suite No.1 for steel string guitar
Played by guitarvangelist
Tabbed by einziger76

D-----------------------------------------------------------------------
A-----2p0-2---2-------2p0-2---2-------3p2-3---3-------3p2-3---3---------
G-----------------------------------------------------------------------
D---0-------0---0---0-------0---0---2-------2---2---2-------2---2-------
G-0---------------0---------------0---------------0---------------------
C-----------------------------------------------------------------------

D-----------------------------------------------------------------------
A-----3p2-3---3-------3p2-3---3-------2p0-2---2-------2p0-2---2---------
G-----------------------------------------------------------------------
D---4-------4---4---4-------4---4---5-------5---5---5-------5---4-------
G-0---------------0---------------0---------------0---------------------
C-----------------------------------------------------------------------


D---------------------------------------------------------------------
A-----2p0-2---------------------------0---0---0-------0---0---0-------
G-----------0---0---0---0---------------0---0---0-------0---0---0-----
D---3---------4---2---4-----0-------5---------------5-----------------
G-0-----------------------4---6p4-6---------------6-------------------
C---------------------------------------------------------------------
Добавлено: 24.11.2013
Другие материалы по этой песне:
  • Аккорды и текст

Страница создана 24.11.2013
http://primanota.ru/johann-sebastian-bach/cello-suite-part-1-chords.htm
Привет, Гость.
Предлагаем пройти революционный курс по гитаре.
Подарок от PrimaNota.Ru, забирай!