PrimaNota.ru - самый крупный в мире бесплатный архив песенных текстов, аккордов, табулатур и нот


Бах Иоганн Себастьян - Cello Suite No 5 - Bwv 1011 - таба, видео

Регистрация Запомнить меня
Войти через:  Facebook Google Twitter Vk Yandex Mail.ru

Бах Иоганн Себастьян - Cello Suite No 5 - Bwv 1011 - таба, видео

Печатать
Просмотров: 190
Уроки эстрадного вокала в Санкт-Петербурге
This is the same song played by Haji (Furukawa Nobuo) in Blood+ ^^! However, it's only
half the song (2 min.), tho it sounds fine if you let the last chord ring. If you decide
transcribe the rest of the song here's the audio I used 
<.< it gets a little fast. Also, there's a tab for the whole song tho it's a
different and not in the right key. Here's the link to that one if you're interested. 
Anyway, enjoy.


Tuning: Drop C (CGCFAD) You can use this to tune your guitar (http://bit.ly/cSjR9b).

The timing isn't the best so I recommend listening to the song if you haven't heard it.
the link (http://www.youtube.com/watch?v=_0WR7_3Hos8).


D|-------------------------------------------------------------------------------------|
A|-------------------------------------------------------------------------------------|
F|---------------------------------3-3-2--3-0------------------------------------------|
C|---------------0-2-3-5-3-2-3-0---0----------3--5-2-3------0--0-2-3-2-2-4-------------|
G|--5-5----0-2-4-----------------0-------------------0---------------4---3/3-1-3-0-1---|
C|--0----------------------------0-----------------------0---------------------------0-|

D|-------------------------------------------------------------------------------------|
A|---3-----3--3-1---1-----1------------------------------------------------------------|
F|--0-----0-------3---2-3---3------------------0--2-3-2--0-----------------------------|
C|-0-----0------------------0----5--3p2h3h5--0-------------3-2---3--5p3p2h3-5-3tr5-2-2-|
G|---------------------------------------------4----------------0--------------------0-|
C|------0---------------------0---------------------------------0----------------------|

D|-----------------------1--1-0-------------------------------------------------------|
A|------------1-3p1-1----3------3p1--1---2----------0-3------3--1-3-0-1---4----4--3-1-|
F|------1-2-4------4--2--1---------4----0---0------------0--0-----------2---0-0-------|
C|--2-4---------------------------------------3-2-3---------------------------0-------|
G|----------------------0--------------0-------------------0--------------------------|
C|------------------------------------------------------------------------------------|

D|------------------------------------------------------------------------0---1---0---|
A|--------1----------------------------1---1-3tr1-------------------0h1h3---1-------3-|
F|-3-2--3----2-3--------------------3----3--------3----2--2p0---0h2-------------------|
C|-------------5-------------------2------------------3-------3-----------------------|
G|-------------------0-1--3-5-----0------------------0--------------------------------|
C|----------------5------------3-2----------------------------------------------0-----|

D|---------0--------------------------------------------------------------------------|
A|--1-0----0--------------------0-1--3----3-1--0---1----------------------------------|
F|-------2-1-----------2--------------------------2--2p0------------------------------|
C|------------0------------------------2-----------------3p2p0h2--0-2---3--2-0---0----|
G|--------------3-2-3----2--0--------------------0--------------3------0-------3------|
C|----------------------------6---------------------------------------0---------------|

D|------------------------------------------------------------------------------------|
A|-1p0-1h3-0h1h3----------------------------------------------------------------------|
F|---------------1h2p1h2h4-1h2h4------------------------------------------------------|
C|-------------------------------0h2p0h2h3p0h2h3-----------------------------------2--|
G|-----------------------------------------------2h3p2h3h5-2h3h5------0-2-3-5-2-3-----|
C|---------------------------------------------------------------2-4-6----------------|

D|-------------0------------------------|
A|-------0h1h3---3-1-0-1----------------|
F|---0h2-----------------1-2-2tr1-2---2-|
C|-2---------------------------------2--|
G|----------------------------------0---|
C|--------------------------------------|
Добавлено: 16.06.2012
Другие материалы по этой песне:
  • Аккорды и текст

Страница создана 16.06.2012
http://primanota.ru/johann-sebastian-bach/cello-suite-no-5-bwv-1011-chords.htm
Привет, Гость.
Предлагаем пройти революционный курс по гитаре.
Подарок от PrimaNota.Ru, забирай!