PrimaNota.ru - самый крупный в мире бесплатный архив песенных текстов, аккордов, табулатур и нот


Бах Иоганн Себастьян - Cello Suite No 1 - Prelude - таба, видео

Регистрация Запомнить меня
Войти через:  Facebook Google Twitter Vk Yandex Mail.ru

Бах Иоганн Себастьян - Cello Suite No 1 - Prelude - таба, видео

Печатать
Просмотров: 89
Уроки эстрадного вокала в Санкт-Петербурге
-------------------------------------------------------------------------------
                             CELLO SUITE NO. 1 - J.S. Bach
-------------------------------------------------------------------------------
Tabbed by: James Z
E-mail:

Tuning: Drop D

NOTE: This isn't the whole song, and I know parts are wrong but if you love the song
and just want to play at least a part like I did, you take what you can get ;). It's pretty close.

e|---------------------------------------------------------------------------|
B|---------------------------------------------------------------------------|
G|---------------------------------------------------------------------------|
D|-----4-2-4---4--------4-2-4---4---------5-4-5---5--------5-4-5---5---------|
A|---0-------0---0----0-------0---0-----2-------2---2----2-------2---2-------|
D|-0----------------0-----------------0----------------0---------------------|

e|---------------------------------------------------------------------------|
B|---------------------------------------------------------------------------|
G|---------------------------------------------------------------------------|
D|-----5-4-5---5--------5-4-5---5--------4-2-4---4--------4-2-4-0-4----------|
A|---4-------4---4----4-------4---4----0-------0---0----0-----------4--------|
D|-0----------------0----------------0----------------0----------------------|

e|---------------------------------------------------------------------------|
B|---------------------------------------------------------------------------|
G|---------------------------------------------------------------------------|
D|-----4-2-4-0---0---0---0---------------------------------------------------|
A|---2---------4---2---4-----0-------7-5-7-5-7-5-7---7-5-7-5-7-5-7-----------|
D|-0-----------------------4---6-4-6---------------6-------------------------|

e|---------------------------------------------------------------------------|
B|-----3-2-3-----------------------------------------------------------------|
G|---0-------2-0-2---2-0-2---------------------------------------------------|
D|-----------------4-------0-4-2-0------5-4-5---5--------5-4-5---5-----------|
A|------------------------------------2-------2---2----2-------2---2---------|
D|-7--------------------------------2----------------2-----------------------|

e|---------------------------------------------------------------------------|
B|-----------------------3-2-0-------------3-2-3-----------------------------|
G|-----------------0-----------1-0-------2-------2-0-2-----------------------|
D|-----0-2-0---------4-2-----------4-2-0---------------0-4-2-0---------------|
A|-0-4-------4-2-0-----------------------------------------------------------|
D|---------------------------------------------------------------------------|

e|---------------------------------------------------------------------------|
B|---------------------------------------------------------------------------|
G|---------------------------------------------------------------------------|
D|-------------------------I HAVE NO IDEA------------------------------------|
A|---------------------------------------------------------------------------|
D|---------------------------------------------------------------------------|

ending
e|---------------------------------------------------------------------------|
B|-3-------3---3---3-------3---3---3-------3---3---3-------3---3---3---------|
G|---2---2---2---2---2---2---2---2---2---0---0---0---0---0---0---0---2-------|
D|-----0---------------0---------------2---------------2---------------------|
A|---------------------------------------------------------------------------|
D|---------------------------------------------------------------------------|

e|----------------------------------------3----------------------------------|
B|-----2---2---2-------2---2---2----------2----------------------------------|
G|---2---2---2---2---2---2---2---2--------3----------------------------------|
D|-2---------------2----------------------0----------------------------------|
A|----------------------------------------0----------------------------------|
D|----------------------------------0----------------------------------------|


************************************

| /   slide up
| \   slide down
| h   hammer-on
| p   pull-off
| ~   vibrato
| +   harmonic
| x   Mute note
| b   Bend
| pb  Pre-bend
| br  Bend release
| pbr Pre-bend release
| brb Bend release bend

************************************
Добавлено: 24.09.2015
Другие материалы по этой песне:

Страница создана 08.12.2013
http://primanota.ru/johann-sebastian-bach/cello-suite-no-1-prelude-2-chords.htm
Привет, Гость.
Предлагаем пройти революционный курс по гитаре.
Подарок от PrimaNota.Ru, забирай!