PrimaNota.ru - самый крупный в мире бесплатный архив песенных текстов, аккордов, табулатур и нот


Бах Иоганн Себастьян - Cello Suite No 1 In G Major - Prelude - таба, видео

Регистрация Запомнить меня
Войти через:  Facebook Google Twitter Vk Yandex Mail.ru

Бах Иоганн Себастьян - Cello Suite No 1 In G Major - Prelude - таба, видео

Печатать
Просмотров: 237
-------------------------------------------------------------------------------
          Cello Suite No 1 In G Major - Prelude - Johann Sebastian Bach
-------------------------------------------------------------------------------


e|---------------------------------|---------------------------------|---------------------------------|
B|-----0---0---0-------0---0---0---|-----1-0-1---1-------1-0-1---1---|-----1-0-1---1-------1-0-1---1---|
G|-------2---------------2---------|---------------------------------|---------------------------------|
D|---0-------0---0---0-------0---0-|---2-------2---2---2-------2---2-|---4-------4---4---4-------4---4-|
A|---------------------------------|---------------------------------|---------------------------------|
E|-3---------------3---------------|-3---------------3---------------|-3---------------3---------------|

e|---------------------------------|---------------------------------|---------------------------------|
B|-----0---0---0-------0---0---0---|-----0---0-----------------------|---------------------------------|
G|---0---2---0---0---0---2---0-----|-------2-------------------------|-----2---2---2-------2---2---2---|
D|-------------------------------4-|---2-------5-4-5-2-5-4-5---0-----|---5---5---5---5---5---5---5---5-|
A|---------------------------------|-------------------------2---4-2-|-4---------------4---------------|
E|-3---------------3---------------|-3-------------------------------|---------------------------------|

e|---------------------------------|---------------------------------|---------------------------------|
B|-----3-2-3-----------------------|---------------------------------|-----------------------3-2-0-----|
G|---2-------2-0-2---2-0-2---------|-----0---0---0-------0---0---0---|-----------------0-----------2-0-|
D|-4---------------4-------0-4-2-0-|-------4---------------4---------|-----0-2-0---------4-2-----------|
A|---------------------------------|---2-------2---2---2-------2---2-|---4-------4-2-0-----------------|
E|---------------------------------|-0---------------0---------------|-0-------------------------------|

e|---------------------------------|---------------------------------|---------------------------------|
B|-------3---3---------------------|-----------------0---------------|-------0-1-------------0-1-------|
G|---------2-----2-------2---------|-1-----------1---------------1---|-----2-----2---------2-----2-----|
D|-4-2-0-------4---0-2-4---5-4-2-0-|---0-3-2-3-0---0---0-3-2-3-0---0-|---2---------2-0---2---------4-2-|
A|---------------------------------|---------------------------------|-3---------------3---------------|
E|---------------------------------|---------------------------------|---------------------------------|

e|---------------------------------|---------------------------------|---------------------------------|
B|---------------------------------|---------------------------------|---------------------------------|
G|---------2---2-----------2---2---|-------------2-------------------|---------------------------------|
D|-1-4-1-4---4---4-1-4-1-4---4---4-|-5-4-2-5-4-5---4-5-4-2-0---------|-----0---0---0-------0---0---0---|
A|---------------------------------|-------------------------3-2-0---|---3---3---3---3---3---3---3---3-|
E|---------------------------------|-------------------------------3-|-2---------------2---------------|

e|---------------------------------|---------------------------------|---------------------------------|
B|---------------------------------|---------------------------------|-----1-0-1---1-------1-0-1---1---|
G|---------------------------------|---------------------------------|---------------------------------|
D|-----3-2-3---3-------3-2-3---3---|-----2-0-2---2-------2-0-2---2---|---4-------4---4---4-------4---4-|
A|---2-------2---2---2-------2---2-|---3-------3---3---3-------3---3-|---------------------------------|
E|-3---------------3---------------|-3---------------3---------------|-3---------------3---------------|

e|---------------------------------|---------------------------------|---------------------------------|
B|-----0---0-----------------------|---------------------------------|---------------------------------|
G|-------2-------------------------|---------------------------------|---------------------------------|
D|---0-------5-4-2-0-------------0-|-----2-4-5-2-4-5-----2-4-5-2-4-5-|-----0-2-4-0-2-4-----0-2-4-0-2-4-|
A|-------------------3-2-0---------|-4-0-------------4-0-------------|-3-0-------------3-0-------------|
E|-3-----------------------3-2-0---|---------------------------------|---------------------------------|

e|--------------------------------|---------------------------------|---------------------------------|
B|-----------2-3------------------|-------------------------------3-|-4-3-2-3-3-----------------------|
G|---------2----------------------|-2-----------2-4-5-2-----2-4-5---|-----------5-4-5-5-2-------------|
D|-----0-4----------------0-2-4-5-|---4-0-2-4-5---------4-5---------|---------------------4-2-0-------|
A|-3-0--------------0-2-3---------|---------------------------------|---------------------------0-2-3-|
E|--------------------------------|---------------------------------|---------------------------------|

e|---------------------------------|---------------------------------|---------------------------------|
B|---------------------------------|-----------------2---------------|---------------------------2-3-2-|
G|---------2-4-5-2-4---------------|---------0-2-4-0---3-2-3-3-2-1-2-|-2-----------------------2-------|
D|-0---0-4-----------5-0-----------|-0-----0-------------------------|---5-4-5-5-2---------2-5---------|
A|---0-------------------3-2---0-2-|-----2---------------------------|-------------4-2-0-4-------------|
E|---------------------------3-----|---3-----------------------------|---------------------------------|

e|---------------------------------|---------------------------------|---------------------------------|
B|-3-------------------------------|---------------------------------|---------------------------------|
G|---2-------2---------------------|-----5-4-2---------5-4-2---------|---4-2-------------2-------------|
D|-----4-2-4---0-4---0-------------|-0---------5-4-2-0-------5-4-2-0-|-------5-4-2-0-------5-4-2-0-----|
A|-----------------0---4-2-0-------|---------------------------------|-3-------------3-2-----------3-2-|
E|---------------------------3-2-0-|---------------------------------|---------------------------------|

e|---------------------------------|---------------------------------|--------------------------------|
B|---------------------------------|---------------------------------|--------------------------------|
G|-----------2---2---2---2---2---2-|---2---2---2---2---2---2---2---2-|---2---2--2---2---2-2-2-4-2---2-|
D|---5-4-2-4---0---2---4---5---2---|-4---0---5---2---4---0---5---2---|-4---0--2---4---5-----------0---|
A|-0-------------------------------|---------------------------------|--------------------------------|
E|---------------------------------|---------------------------------|--------------------------------|

e|---------------------------------|---------------------------------|----------------------------------|
B|-------------------------3-------|---------------------------------|----------------------------------|
G|-2-2-4-2-5-2---2-4-2-5-2---2-4-2-|-5-2-4-2-5-2-2-2-4-2-2-2-4-2---2-|-2-2---2-2-2---2---2---2---2---2--|
D|-------------0-------------------|-----------------------------5---|-----5-------4---5---4---5---2----|
A|---------------------------------|---------------------------------|----------------------------------|
E|---------------------------------|---------------------------------|----------------------------------|

e|---------------------------------|-------------------------1---2---|-3-------3---3---3-------3---3---|
B|---------------------------------|---------2---3---4---5-----------|---0---0---0---0---0---0---0---0-|
G|---2-------------0---1---2---3---|-4---5---------------------------|---------------------------------|
D|-4---0-2-3-0-4-0---0---0---0---0-|---0---0---0---0---0---0---0---0-|-----0---------------0-----------|
A|---------------------------------|---------------------------------|---------------------------------|
E|---------------------------------|---------------------------------|---------------------------------|

e|-3-------3---3---3-------3---3---|-2-------2---2---2-------2---2---|-3-------------------------------|
B|---------------------------------|---1---1---1---1---1---1---1---1-|-0-------------------------------|
G|---2---2---2---2---2---2---2---2-|---------------------------------|---------------------------------|
D|-----0---------------0-----------|-----0---------------0-----------|---------------------------------|
A|---------------------------------|---------------------------------|---------------------------------|
E|---------------------------------|---------------------------------|-3-------------------------------|
Добавлено: 04.06.2015
Другие материалы по этой песне:
  • Аккорды и текст

Страница создана 04.06.2015
http://primanota.ru/johann-sebastian-bach/cello-suite-no-1-in-g-major-prelude-chords.htm
Привет, Гость.
Предлагаем пройти революционный курс по гитаре.
Подарок от PrimaNota.Ru, забирай!