PrimaNota.ru - самый крупный в мире бесплатный архив песенных текстов, аккордов, табулатур и нот


Бах Иоганн Себастьян - Bwv Anh 132 Minuet In D Minor - таба, видео

Регистрация Запомнить меня
Войти через:  Facebook Google Twitter Vk Yandex Mail.ru

Бах Иоганн Себастьян - Bwv Anh 132 Minuet In D Minor - таба, видео

Печатать
Просмотров: 254
E-|---Song:-Minuet-in-Dm-(Ah 132)------------------|
A-|---Composer:-Johann-Sebastian-Bach--------------|
D-|---Transcription-by:Christian Liang-------------|
G-|---E-Mail:christian.liang@gmail.com-------------|   
B-|---http://www.classclef.com---------------------|
E-|---Enjoy!---------------------------------------|



Minuet-in-Dm-(Ah 132) by Johann Sebastian Bach (1685-1750)

Time 3/4

Tempo Moderate

PART 1

[1]                                                    *

E|--------3--2--0-----|--0-----------------|--------------------|
B|--0--------------4--|--------0-----1-----|-----------1--0-----|
G|--------------------|--------------------|--------2--------2--|
D|--------------------|--------------------|--1--4--------------|
A|--------------------|--------------0-----|--2======-----2-----|
E|--0======-----2-----|--3======-----------|--------------------|
    |  |  |  |  |  |     |  |  |  |  |  |     |  |  |  |  |  |    
R   i     m  i  m  i     m     i     i        i  i  m  a  a  m     
    p           p        p           p        p           p        
L         3  2  1  4     2           1        1  4  3  1  2  3     
					      2				 

[4]

E|--------------------|--------------0-----|--3-----2--0--------|
B|--------------------|--------1p-0-----3--|--------------3--1--|
G|--0--------0--------|--0-----------------|--------------------|
D|--2-----4-----2-----|--2-----0-----------|--------------------|
A|--------2-----------|--------------3-----|--2======-----------|
E|--------------0-----|--------------------|--------------2-----|
    |  |  |  |  |  |     |  |  |  |  |  |     |  |  |  |  |  |  
R   i     i  i  i        i     m     m  i     m     i  m  i  i     
    p     p     p        p     p     p        p           p

L   2     4     2        2      1    2  3     4     2     4  1
    1                                   1           2


[7]                    Ending 1             Ending 2

E|--------------------|--------------------|--------------------|
B|--0--1h3------------|--------------------|--------------------|
G|--------0-----------|--0-----------------|--0-----------------|
D|--------------4-----|--------------------|--------0-----------|
A|--------2-----5-----|--------2--0--------|--------------------|
E|--3-----------------|--3===========3--2--|--3===========3-----|
    |  |  |  |  |  |     |  |  |  |  |  |     |  |  |  |  |  |   
R   m  m  i     i        m     i  i  p  p     m     i     m
    p     p     p        p                    p

L   3  1h41     3        2     1     2  1     1           1
                4


PART 2  

[10]							           
E|--7--------7--5--3--|--2h3-5-------------|--2--------3--2--0--|
B|--------------------|--------3======-----|--------------------|
G|--------0-----------|-----------2--------|--------0-----------|
D|--5-----------------|--0-----------4--0--|--3-----0-----------|
A|--------------3-----|--------------------|--------------3-----|
E|--------7-----------|--------------------|--------------------|
    |  |  |  |  |  |     |  |  |  |  |  |     |  |  |  |  |  |    
R   m     i  m  m  m     i   m m  i  p  p     m     i  m  m  m       
    p     p     p        p                    p     p     p        

L   4     2  4  4  2    1h2h4  2 1  3         3        3  1       
    1           1                             1           2        


[13]
    II **                      IV            VII    VIII
E|-----2==------------|--------------------|-----------8--7--5--|
B|--4h5---0==========-|--------4--5--7--8--|-10--7--------------|
G|--------------------|--4--6--------------|--------8-----------|
D|--------1--2--4--5--|--7-----4-----------|--------9-----------|
A|--2--4==------------|--------------6-----|--------------6-----|
E|--------------------|--------------------|--7-----------------|
    |  |  |  |  |  |     |  |  |  |  |  |     |  |  |  |  |  |  
R   m  a  i  p  p  p     i  i  i  i  i  i     i  i  i  m  m  i
    p  p  p              p     p     p        p     p     p
L   3h41  1  2  1  2     1  3  1  2  2  3     4  1  2  1  4  1
    1  2                 4     1     1        1     1     2


[16]                    Ending 1             Ending 2

E|--3p2p0-2-----------|--0-----------------|--0-----------------|
B|--------------4-----|--------------------|--------------------|
G|--------------------|--------------------|--------------------|
D|--2-----------------|--2-----------2--4--|--2-----------------|
A|--------0-----2-----|-----------2--------|--------2-----------|
E|--------------------|--------0-----------|--------------0-----|
    |  |  |  |  |  |     |  |  |  |  |  |     |  |  |  |  |  |   
R   m     m     i        m     p  i  m  i     m     p     p  
    p     p     p        p                    p

L   4h2   2     4        2        1  2  1     2     1   
    1           1


Tips
* Bar [3] Hinge Chord. Flatten your finger at note C to barre.
** Bar [13] Hold Barre chord's (2nd fret) last note (C# AND F#) 
as long as possible. 

Добавлено: 29.03.2012
Другие материалы по этой песне:
  • Аккорды и текст

Страница создана 29.03.2012
http://primanota.ru/johann-sebastian-bach/bwv-anh-132-minuet-in-d-minor-chords.htm
Привет, Гость.
Предлагаем пройти революционный курс по гитаре.
Подарок от PrimaNota.Ru, забирай!