PrimaNota.ru - самый крупный в мире бесплатный архив песенных текстов, аккордов, табулатур и нот


Бах Иоганн Себастьян - Bwv Anh 121 Minuet In C Minor - таба, видео

Регистрация Запомнить меня
Войти через:  Facebook Google Twitter Vk Yandex Mail.ru

Бах Иоганн Себастьян - Bwv Anh 121 Minuet In C Minor - таба, видео

Печатать
Просмотров: 215
E-|---Song:-Minuet-in-C-minor----------------------|
A-|---Author:-JSBach-------------------------------|
D-|---Transcription-by:Christian Liang-------------|
G-|---E-Mail:christian.liang@gmail.com-------------|   
B-|---http://www.classclef.com---------------------|
E-|---Enjoy!---------------------------------------|



Minuet in C minor Anh 121 by Johann Sebastian Bach (1685-1750)

Play AABB. 3/4 Time Signature. 
From the Notebook of Anna Magdalena Bach

Part A

[1]      											 

E|------------------------------|----------------------1-------|
B|--1---------1---------3-------|--4---------4-----------------|
G|------------------------------|------------------------------|
D|------------------------------|----------------------0-------|
A|--3====================-------|--3---------3-----------------|
E|------------------------------|------------------------------|
    |    |    |    |    |    |     |    |    |    |    |    |   

R   m         m         m          m         m         m          
    p                              p         p         p          

L   1         1         4          4         4         1          
    3                              2         2                    

[3]
                                   trill

E|--3---------3---------4-------|--323232----------------------|
B|------------------------------|----------------------8-------|
G|------------------------------|------------------------------|
D|--1---------1-----------------|--0---------------------------|
A|----------------------3-------|------------3-----------------|
E|------------------------------|----------------------7-------|
    |    |    |    |    |    |     |    |    |    |    |    |
R   m         m         m          m         p         m
    p         p         p          p                   p

L   3         3         4          213121    2         4
    1         1         1                              2



[5]

E|-------4----------------------|-------3----------------------|
B|------------6-p--5----6-------|------------4-p--3----4-------|
G|------------------------------|------------------------------|
D|------------------------------|------------------------------|
A|----------------------0-------|------------------------------|
E|--6====================-------|--4===================3-------|
    |    |    |    |    |    |     |    |    |    |    |    |   
R   p    a    m         m          p    a    m         m          
                        p                              p          

L   3    1    4    2    4          2    1    3    1    4          
                                                       2          

[7]

E|------------------------------|------------------------------|
B|----------------------3-------|------------------------------|
G|--5-p--4----5-----------------|--0========-0========---------|
D|------------------------------|-----------------3-p--1----0--|
A|------------------------------|------------------------------|
E|--4===================1-------|--3---------------------------|
    |    |    |    |    |    |     |    |    |    |    |    |
R   i         i         m          i         i    p         p
    p                   p          p
L   3    2    3         4          3              4    1
    1                   1


Part B

[9]										      

E|--3---------3---------4-------|--6-p--4----3-p--4----6-------|
B|------------------------------|------------------------------|
G|------------------------------|------------------------------|
D|------------2---------3-------|--5---------2-----------------|
A|--3---------------------------|----------------------3-------|
E|------------------------------|------------------------------|
    |    |    |    |    |    |     |    |    |    |    |    |     
R   m         m         m          m         m         m          
    p         p         p          p         p         p          
L   4         4         4          4    1    3    4    4          
    3         2         2          2         1         1          

[11]                       
                         Triplet
E|------------0---------------6-|-4-p--3----1=================-|
B|--1-------------------8-h9----|------------------------------|
G|------------------------------|----------------0-------------|
D|--2---------------------------|-3-------------------3----1---|
A|------------3---------7-------|------------------------------|
E|------------------------------|------------------------------|
    |    |    |    |    |  |  |   |    |    |    |    |    |
R   i         m         i     m   m         m    p    p    p
    p         p         p         p          

L   1         2         3  4  1   4    3    1         3    2
    2                   2         2


[13]
										      
E|--1---------1---------3-------|--4-p--3----1-h--3----4-------|
B|------------------------------|------------------------------|
G|------------------------------|------------------------------|
D|--0-------------------1-------|--3---------0-----------------|
A|------------1-----------------|----------------------3-------|
E|------------------------------|------------------------------|
    |    |    |    |    |    |     |    |    |    |    |    |   
R   m         m         m          m         m         m          
    p         p         p          p         p         p           


L   1         1         3          4    3    1    3    4          
              2         1          2                   2                    

[15]
                        Triplet   I.......................

E|----------------------1-h3--4-|-3-p--1-----------------------|
B|------------3-----------------|-----------4=================-|
G|--3---------------------------|------------------------------|
D|--0-------------------0-------|-1--------------3----1----0---|
A|------------1-----------------|------------------------------|
E|------------------------------|------------------------------|
    |    |    |    |    |  |  |   |    |    |    |    |    |
R   i         i         m     m   m         i    p    p    p
    p         p         p         p     
L   3         3         1  3  4   3    1    4    3    1
    1                   1

[17]

E|------------------------------|------------------------------|
B|------------------------------|----------------------1-------|
G|--0---------1---------2-------|--3---------4-----------------|
D|------------3---------1-------|--0---------5---------1-------|
A|--3---------------------------|------------------------------|
E|------------------------------|------------------------------|
    |    |    |    |    |    |     |    |    |    |    |    |   
R   i         i         i          i         i         m          
    p         p         p          p         p         p          
L   3         1         2          2         2         2                    
              4         1                    3         1                 

[19]

E|------------------------------|------------0---------1-------|
B|--0---------1---------3-------|--4---------------------------|
G|------------------------------|------------------------------|
D|--0---------------------------|------------------------------|
A|------------3---------2-------|--3---------1---------0-------|
E|------------------------------|------------------------------|
    |    |    |    |    |    |     |    |    |    |    |    |
R   m         m         m          m         a         a
    p         p         p          p         p         p          

L             1         4          4         2         1
              3         2          2 

[21]

E|----------------------0-------|--1---------2---------3-------|
B|--3---------4-----------------|------------------------------|
G|------------------------------|------------------------------|
D|------------------------------|------------------------------|
A|--2---------3---------1-------|--0---------------------------|
E|------------------------------|------------4---------3-------|
    |    |    |    |    |    |     |    |    |    |    |    |     
R   m         m         a          a         a         a          
    p         p         p          p         p         p          

L   4         4         2          1         1         4          
    2         2                              3         3 
                  
[23]

E|------------------------------|------------------------------|
B|------------6-p--4----3-h--4--|--1==========================-|
G|--0---------------------------|------------------------------|
D|--1---------3---------5-------|------------------------------|
A|------------------------------|--3==========================-|
E|------------------------------|------------------------------|
    |    |    |    |    |    |     |    |    |    |    |    |
R   i         m         m          m
    p         p         p          p

L   1         4    2    1    2     1
    1         3         3

Добавлено: 28.07.2012
Другие материалы по этой песне:
  • Аккорды и текст

Страница создана 28.07.2012
http://primanota.ru/johann-sebastian-bach/bwv-anh-121-minuet-in-c-minor-chords.htm
Привет, Гость.
Предлагаем пройти революционный курс по гитаре.
Подарок от PrimaNota.Ru, забирай!