PrimaNota.ru - самый крупный в мире бесплатный архив песенных текстов, аккордов, табулатур и нот


Бах Иоганн Себастьян - Bwv 995 Gavotte - таба, видео

Регистрация Запомнить меня
Войти через:  Facebook Google Twitter Vk Yandex Mail.ru

Бах Иоганн Себастьян - Bwv 995 Gavotte - таба, видео

Печатать
Просмотров: 119
****************************************************************************
							    		   *
Gavotte from the 3rd Lute Suite, part 1 (BWV 995)	    		   *
by J.S. Bach						      	           *
									   *
Tabulated for solo guitar in 2003					   *
by Kaze (hazeon@flatspace.org)						   *
							   		   *
quarter notes have 4 spaces afterwards.			    		   *
eighth notes have 2 spaces afterwards.			    		   *
The "|" character used to divide measures			           *
doesn't count toward the spacing between notes.		    		   *
Two circles at the beginning or end of a measure, like so:                 *
			|	 |					   *
			|	 |					   *
			|o	o|					   *
			|o	o|					   *
			|	 |					   *
			|	 |					   *
indicates a section repeat.						   *
									   *
****************************************************************************
									   *
4/4 time								   *
									   *
|------------------5---|-1----3--0--1----3----|-0---------------1----|     *
|-------------5--------|-1----------0-------3-|-0----1-------------1-|     *
|o------------5--------|----------------------|---------1--2---------|     *
|o---------------------|-0--------------------|----------------------|     *
|-------------0--------|----------------------|-3--------------------|     *
|----------------------|------------3---------|------------1---------|     *
									   *
									   *
|------------------0---|-------------------5----|-1-----3-----1-----3----| *
|-3----0--------0------|-3--1--0-----5--------5-|----3-----2-----3-----0-| *
|-2----------1---------|----------2-----5-------|------------------------| *
|---------4------------|------------------------|------------------------| *
|-2--------------------|-0-----------0-----3----|-0-----------0----------| *
|------------0---------|------------------------|-------------------3----| *
									   *
									   *
|-0-----1-----0-----3--0-|-5-----6-----5-----8----|-7-----8--7--5--3--2--0-|
|----1-----0-----1-------|----6-----5-----6-----7-|----8-------------------|
|------------------------|------------------------|-0-----------0----------|
|-------------------2----|-3-----------3-----0----|------------------------|
|-3-----------3----------|------------------------|------------------------|
|------------------------|------------------------|-------------------3----|
									   *
					    ten				   *
|-2----3--0--2----5--2-|-3----5--2--3----8-----|-7----0----3--2--0-----|   *
|-5----------5---------|-5----------5-------10-|------0-------------4--|   *
|----------------------|-----------------------|-8---------------------|   *
|----------------------|-----------------------|-----------------------|   *
|-0----------3---------|-2----------0----------|-----------0-----2-----|   *
|----------------------|-----------------------|------3----------------|   *
									   *
									   *
|-0-------------------|-----------------3----|-----------------5----|      *
|-0-------------------|--------------------5-|-2----3--0--2-------2-|      *
|-1------------------o|-----------------4----|-2----------2---------|      *
|-2------------------o|----------------------|----------------------|      *
|---------------------|----------------------|-0--------------------|      *
|------0--------------|-----------------0----|------------3---------|      *
									   *
									   *
|------0----------5----|-0----1-----0----5--0-|-3--1--0-----1--0-------|   *
|-3-------2--3-------3-|---------3--2---------|----------3--------3--1-|   *
|-2----------2---------|-2--------------------|-2-----------2----------|   *
|------------3---------|----------------------|-0-----------0----------|   *
|----------------------|-4----------0---------|------------------------|   *
|-1--------------------|----------------------|------------------------|   *
									   *
									   *
|-------------------3----|-------------------3----|-------0-----------3----|
|-0-----1-----0--------0-|-1-----3--0--1--------1-|-3--------1--3--------3-|
|----------2--0----------|-------------2----------|----0--------4----------|
|----3-----------3-------|----2-----------2-------|----------------5-------|
|------------------------|-0-----------0----------|-2-----------2----------|
|-3-----------3----------|------------------------|------------------------|
									   *
									   *
|-1--0--------1--0---|-------------5----3---|-1----------------1---|	   *
|-------3--1--1--1---|-3--1--3--0-------1---|-1--0--1-----0----3---|	   *
|-------------2--0---|-------------5--------|----------2-----------|	   *
|--------------------|-3-----------3----2---|-0-----------0--------|	   *
|-3------------------|----------------------|------------------2---|	   *
|--------------------|----------------------|----------------------|	   *
									   *
									   *
|-1-----0-----0----------|-----------0--------|-3----5--2--3----5----|     *
|----3-----1-----3--1--0-|-1---------1----1---|-3------------------5-|     *
|-------------0----------|-0---------0--------|----------------------|     *
|-------3----------------|-2--------------2---|----------------------|     *
|-3----------------------|-3----3----3--------|-2---------------4----|     *
|-------------------3----|--------------------|----------------------|     *
									   *
									   *
|-3--2--0-----3--2--5--4-|-5--4--7--4--5----------|-------5--4--8----------|
|----------3-------------|-------------------0----|----0-----------5--6----|
|------------------------|----------------5-------|----------------------7-|
|-0----------------------|----------------------7-|-2----------------------|
|------------------------|-6----------------------|-------------0----------|
|------------------------|------------------------|-0----------------------|
									   *
									   *
|-7-----------5----------|-5--4--2--0--5----------|-3-----------1----------|
|-------5-----------3----|-------------------3----|----0--1-----------0----|
|----7-----5-----5-----4-|----------------5-----4-|----------2-----2-----1-|
|-5-----------3----------|------------------------|------------------------|
|------------------------|------------------------|------------------------|
|------------------------|-0-----------0----------|-0-----------0----------|
									   *
									   *
|-0---------------------|----------------------|---------------1----|      *
|----3--1--0-------1----|-0----1-----0----3--0-|-1----3--0--1-----3-|      *
|-1-----------2-------2-|-2-------2--2---------|-2----------2-------|      *
|-0---------------------|-0----------3---------|-2----------0-------|      *
|-------------3---------|----------------------|--------------------|      *
|-----------------------|----------------------|--------------------|      *
									   *
									   *
|-0--------------------|----------------------|				   *
|-----------1--0-------|----------------------|				   *
|-1----2----------2--1-|-2--------------------|				   *
|-----------0-----2----|----------------------|	proceed to gavotte 2       *
|------3---------------|----0-----------------| or end here		   *
|----------------------|----------------------|				   *
									   *
****************************************************************************
     
Добавлено: 28.10.2013
Другие материалы по этой песне:
  • Аккорды и текст

Страница создана 28.10.2013
http://primanota.ru/johann-sebastian-bach/bwv-995-gavotte-chords.htm
Привет, Гость.
Предлагаем пройти революционный курс по гитаре.
Подарок от PrimaNota.Ru, забирай!