PrimaNota.ru - самый крупный в мире бесплатный архив песенных текстов, аккордов, табулатур и нот


Бах Иоганн Себастьян - Bwv 995 - Bouree - таба, видео

Регистрация Запомнить меня
Войти через:  Facebook Google Twitter Vk Yandex Mail.ru

Бах Иоганн Себастьян - Bwv 995 - Bouree - таба, видео

Печатать
Просмотров: 86
		   |---2----------3----------|-------4-----5---------| 
    |               |          |    |     |     |       |    |     |    | 
    oo 
 
 
                           oo 
    |   +--+  |    +--+    |                 +--+     |    +--+   |    +--+ 
 
e|-----------------------|-------------------------|-------3------0----------| 
B|------------1----------|-------------------3-----|--0-------3-----------3--| 
G|--1---2--4-------4--2--|-2--------------------2--|-------------------4-----| 
D|--2---------2----------|-------------------------|-------------------------| 
A|------0----------------|-0--2--0-----------------|-------2------3----------| 
E|-----------------0-----|----------3--2-----2-----|--3----------------4-----| 
    |   |     |    |       +--+  +--+  |     |        |    |      |    | 
 
 
                                                     oo 
    |    +--+  |    +--+     |    +--+  |    +--+    |                +--+ 
e|-------5--0-------------|------------------------|------------------7-----| 
B|--1----------7-------5--|-------2-------------0--|-0-------------------7--| 
G|------------------6-----|--7-------4--3----------|------------------------| 
D|-------------0----------|-------2-----4----------|------------------------| 
A|--0----4----------------|------------------------|-2--1--2--4--6----------| 
E|------------------6-----|--7---------------2-----|------------------7-----| 
    |    |     |    |        |    |     |    |       +--+  +--+       | 
 
 
 
    |    +--+  |    +--+ 
e|-------------5----0--3--|#----2----------------------| 
B|--9----7--5-------------|#---------------------------| 
G|-----------------------*|#---------------------------| 
D|-----------------------*|#----0----------------------| 
A|--7----5-----4----0-----|#---------------------------| 
E|------------------------|#---------------------------| 
    |    |     |    | 
 
 
 
Any other Classical song/Suggestions/Comments are VERY welcome... 
 
Pierre.Olivier%aftsun@deltacom.cam.org
--
|GatorNet: Pierre Olivier 128:202/12
|Internet: Pierre.Olivier%aftsun@deltacom.cam.org
|


     
Добавлено: 17.06.2013
Другие материалы по этой песне:
  • Аккорды и текст

Страница создана 17.06.2013
http://primanota.ru/johann-sebastian-bach/bwv-995-bouree-chords.htm
Привет, Гость.
Предлагаем пройти революционный курс по гитаре.
Подарок от PrimaNota.Ru, забирай!